Alexisonfire - Hey Its Your Funeral Mama Chords & Tabs

 

Hey Its Your Funeral Mama Chords & Tabs

Alexisonfire Chords & Tabs

Version: 5 Type: Tab

Hey Its Your Funeral Mama Tab

   
Tabbed by: C-BOB

THis is just the Riff played trhoughout the song at various times! I am a newbie!!!  

Tuning:REGULAR KIND

e|---------------------------------------------------------------------------|
B|-----------------------------------------8---------------------------------|
G|-------------------------------8-------------------------------------------|
D|---------------8------8---10-------10--------------------------------------|
A|------6h8/10-------10------------------------------------------------------|
E|6h8------------------------------------------------------------------------|
[ Tab from: http://www.guitartabs.cc/tabs/a/alexisonfire/hey_its_your_funeral_mama_tab_ver_5.html ]
e|---------------------------------------------------------------------------|
B|----------------------------------------11-8-------------------------------|
G|-------------------------------8-------------------------------------------|
D|---------------8------8---10--------10-------------------------------------|
A|------6h8/10-------10------------------------------------------------------|
E|6h8------------------------------------------------------------------------|
 I'm almost positive this is how that riff is played in the video..Play it fast and play it hard!

ALESXISONFIRE IS GOOD! I don't even like screamo/emo or any of that, but i like them!

| /  slide up
| \  slide down
| h  hammer-on
| p  pull-off
| ~  vibrato
| +  harmonic
| x  Mute note
===============================================================================