Alexisonfire - Hey Its Your Funeral Mama Chords & Tabs

 

Hey Its Your Funeral Mama Chords & Tabs

Alexisonfire Chords & Tabs

Version: 1 Type: Tab 0 ratings
1 star 2 stars 3 stars 4 stars 5 stars
comments

Hey Its Your Funeral Mama Tab

Alexisonfire-"HEY, IT'S YOUR FUNERAL MAMA"
Tabbed By Ricky
This song was 100% Ear Transcribed and sounds right to me!
Tune Down 1 half step and put in drop C#
Intro
---------4------6------8-----6------------------------------------------|
---------4------6------8-----6------------------------------------------|
---------4------6------8-----6------------------------------------------|
-----44-----00-----44-----00--------------------------------------------|
-----44-----00-----44-----00--------------------------------------------|
-----44-----00-----44-----00--------------------------------------------|

First Guitar Play for (Intro/Chorus)
------------------------------------------------------------------------|
------------------------------------------------------------------------|
------------------------------------------------------------------------|
---11---9---7-----------------------------------------------------------|
---11---9---7-----------------------------------------------------------|
---11---9---7-----------------------------------------------------------|

Second Guitar Play for (Intro/Chorus)
---------------------4----------------------7---4-----------------------|
------------------------------------------------------------------------|
------------------------------------------------------------------------|
---------4-6-7-9------------------4-6-7-9-------------------------------|
--4-6-7--------------------4-6-7----------------------------------------|
------------------------------------------------------------------------|
[ Tab from: http://www.guitartabs.cc/tabs/a/alexisonfire/hey_its_your_funeral_mama_tab.html ]
Both Guitars (Verse)
-------4-------4--------------------------------------------------------|
-------4-------4--------10--9-10--9-------------------------------------|
-------4-------4---------9--9--9--9-------------------------------------|
---44------44-----------------------------------------------------------|
---44------44-----------------------------------------------------------|
---44------44-----------------------------------------------------------|

Chorus....

Bridge
------------------------------------------------------------------------|
------------------------------------------------------------------------|
--9-8-6-4-8-9-16-13-----------------------------------------------------|
--x-x-x-x-x-x-x--x------------------------------------------------------|
--7-6-4-2-6-7-14-11-----------------------------------------------------|
------------------------------------------------------------------------|

Chorus....ends with both guitars playing 1st guitar part...
Back to Bridge
------------------------------------------------------------------------|
------------------------------------------------------------------------|
--9-8-6-4-6-8-9-16-13-16-13---------------------------------------------|
--x-x-x-x-x-x-x-x--x--x--x----------------------------------------------|
--7-6-4-2-4-6-7-14-11-14-11---------------------------------------------|
------------------------------------------------------------------------|

-----12-11-----12-11------12-11-----------------------------------------|
-----------12--------12-9-------12-9h10p9-12----------------------------|
------------------------------------------------------------------------|
------------------------------------------------------------------------|
------------------------------------------------------------------------|
------------------------------------------------------------------------|

Chorus......

END!.............This should all be 100% correct!!!!
Comments