Alexisonfire - Control Chords & Tabs

 

Control Chords & Tabs

Alexisonfire Chords & Tabs

Version: 1 Type: Tab 0 ratings
1 star 2 stars 3 stars 4 stars 5 stars
comments

Control Tab

   
Title: Control
Artist: Alexisonfire
Album: Watch Out

Db Ab Db Gb Bb Eb

Hey guys, this song has about 3 tracks of guitar in the chorus, so pretty much just do as 

you wish with it. I also included what time scale each part is on the bottom for all you 

beat-handicapped players. Great song.



Chorus

|--------------------------------------------|
|--------------------------------------------|
|-2222222222222222-99999999-10101010-7777----|
|-2222222222222222-99999999-10101010-7777----|
|-2222222222222222-99999999-10101010-7777----|


Gtr 1.
|---------------------------|
|---------------------------|
|-----10--7----10--7--------|
|-7-7--------7--------9--7--|
|---------------------------|
|---------------------------|


Gtr 2.
[ Tab from: http://www.guitartabs.cc/tabs/a/alexisonfire/control_tab.html ]
|----------------------------------|
|-7h8p7----------------------------|
|-------9h7h9---------7----(7h)9---|
|----------------9-----------------|
|----------------------------------|
|----------------------------------|


Bridge:

|-----------------------------------------------------------------------|
|-8-7-----------8-7------8-7--------------------------------------------|
|-----7-9-7---------7-9------7-9-7----------------------7-----7--9--9---|
|-----------9----------------------9---9-9-7-5-7----5-7---9-------------|
|-----------------------------------------------------------------------|
|-----------------------------------------------------------------------|


Coming out of Bridge...

|----------------------------|
|----------------------------|
|--99999999-10101010-7777----|
|--99999999-10101010-7777----|
|--99999999-10101010-7777----|


Ending note:
|-2-|
|-2-|
|-2-|


------------------
Order: (Time Scale)

Chorus    (4/4)
Lead Part (4/4)
Chorus [Short] (3/4)
Verse [Play slow variations of Bridge] (3/4)
Chorus    (4/4)
Silence   (3/4)
Chorus    (3/4)
Bridge    (3/4)
Chorus    (4/4)
------------------

Author: 

Lee Duck
leeduck1@charter.net
Comments