Alexisonfire - A Dagger Through The Heart Of St Angeles Chords & Tabs

 

A Dagger Through The Heart Of St Angeles Chords & Tabs

Alexisonfire Chords & Tabs

Version: 1 Type: Bass Tab 0 ratings
1 star 2 stars 3 stars 4 stars 5 stars
comments

A Dagger Through The Heart Of St Angeles Bass Tab

   
Band: Alexisonfire
Song: A Dagger Through The Heart Of St. Angelis

I think this is mostly right. A few parts its hard to hear the bass, mostly because the 
players are doing a lot of technical stuff. Hope you enjoy.

Intro X4
Gb-----------------------|
Db-----------------------|
Ab-777-77-7-7-333-33-3-3-|
Eb-----------------------|

Then just play Eb-0- over and over with the drums until

:40
Gb---------|
Db---------|
Ab-7-7---7-|
Eb---------|

Verse play 2 times
Gb-----------------------------------------------|
Db-----------------2-----------------------------|
Ab-3333-22-33-5325---3333-2222-33-55-77-55-33-55-|
Eb-----------------------------------------------|

2nd part of Verse  play this 3 times
Gb-------------------------------------------------|
Db-------------------------------------------------|
Ab-33333333/88888888-33333333----------------------|
Eb----------------------------00-00-00-0-0-0-0-000-|

Then play this transition part once
Gb-----------------------------------------------------|
Db-----------------------------------------------------|
Ab-33333333/88888888-33333333---/7---/7--/7------------|
Eb----------------------------0/---0/--0/---00-00-0-00-|
[ Tab from: http://www.guitartabs.cc/tabs/a/alexisonfire/a_dagger_through_the_heart_of_st_angeles_btab.html ]
Now another transition thingy
Gb----------------------------------------------|
Db-5-5---5-5---5-5---5-5--------------------5-5-|
Ab-----------------------3333-22-33-55-33-5-----|
Eb----------------------------------------------|


Play this 3 times
Gb----------------------|
Db------------------5-5-|
Ab-33-22-33-55-33-5-----|
Eb----------------------|

Then play this 1 time
Gb----------------------|
Db------------------5-5~|
Ab-3333-22-5-2-33-5-----|
Eb----------------------|

This is the Bridge part, bass comes in at 2:21
Gb-12-12-14-12-11-------11----|
Db----------------15-12----12-|
Ab----------------------------|
Eb----------------------------|

Stop playing at 2:50 and just wait
Then at 3:16 come in with the outro

Outro play 4 times
Gb-----------------------|
Db-----------------------|
Ab-----------3333-55-3-5-|
Eb-0000-3333-------------|

Play this 4 times, its hard to hear the bass though
Gb---------|
Db---------|
Ab-----3~5~|
Eb-0~3~----|

End the song with this
Gb-----------------------------------------------|
Db-----------------------------------------------|
Ab--------7----------7------------7----------7---|
Eb-000-00---0-000-00---0-000-00-0---0-000-00---0-|

I think its pretty close, hope you enjoy it.
Comments