Alex Lloyd - Outside Chords & Tabs

 

Outside Chords & Tabs

Alex Lloyd Chords & Tabs

Version: 1 Type: Tab

Outside Tab

   
ALEX LLOYD - Outside
Tabbed by Longy Truong
Great song. One of the good ones on his new album. Tabs probably aren't 100% but i tried
my best to listen to the song as hard as i could. Feel free to change the chords when you
play it.

Capo on 1st fret.

Verse chords
  G  C
e-3-----|
B----1--|
G-------|
D----2--|
A-2--3--|
E-3-----|
[ Tab from: http://www.guitartabs.cc/tabs/a/alex_lloyd/outside_tab.html ]
Bridge chords
  Em  G/5  F#/5  C#
e-------------------|
B-----4-----3-----2-|
G-------------------|
D-2---5-----4-----3-|
A-2---6-----5-----4-|
E-------------------|

Chorus chords
  C  G  D  Am
e----3--2-----|
B-1-----3--1--|
G-------2--2--|
D-2--------2--|
A-3--2--------|
E----3--------|