Alex Goodlive - Dream Chords & Tabs

 

Dream Chords & Tabs

Alex Goodlive Chords & Tabs

Version: 1 Type: Tab 0 ratings
1 star 2 stars 3 stars 4 stars 5 stars
comments

Dream Tab

   
INTRO 2X
E---------------0-----0------0---------------------8-----0-----0--------------|
B------------6-----6------------6---------------6-----6-----6-----6-----------|
G---------7--------------7---------7---------7-----------------------7--------|
D------7----------------------------------7-----------------------------------|
A---0---------------------------------0---------------------------------------|
E-----------------------------------------------------------------------------|

E--------------0----0-------------------------------------------------------|
B-----------6----6-----------------2-------------1--------------------------|
G--------7-------------7--------3-------------2-----------------------------|
D-----7----------------------3--------3----2--------2-----------------------|
A--0------------------------------------------------------------------------|
E---------------------------------------------------------------------------|

VERSE 1 4X
E-------------0-------0-----------0----------------------------------------|
B-------------1-------1-----------1----------------------------------------|
G----------2--------2----------2-----------1-------------------------------|
D-------2---------2---------2------------2---------------------------------|
A----0----------0--------0-------------2-----------------------------------|
E-----------------------------------0--------------------------------------|
Then one full E Chord

INTRO 2X
E--------------0----0-------------------------------------------------------|
B-----------6----6-----------------2-------------1--------------------------|
G--------7-------------7--------3-------------2-----------------------------|
D-----7----------------------3--------3----2--------2-----------------------|
A--0------------------------------------------------------------------------|
E---------------------------------------------------------------------------|
[ Tab from: http://www.guitartabs.cc/tabs/a/alex_goodlive/dream_tab.html ]
VERSE 2
E--------0------0-------0-----------------0-------0-------0--------------------|
B--------1------1-------1-----------------1-------1-------1--------------------|
G------2------2-------2---------1-------2-------2-------2--------1-------------|
D----2------2-------2---------2-------2-------2-------2--------2---------------|
A--0------0-------0---------2-------0-------0-------0--------2-----------------|
E-------------------------0--------------------------------0-------------------|

E--------------3----------0------------3---------0-------0---0----------------|
B--------------3----------2--------2---2---------2-------1---0----------------|
G-----------0----------0--------3--------------0-------2-----1----------------|
D-------------------2--------0--------------2--------2-------2----------------|
A------2---------0----------------------0----------0---------2----------------|
E---3--------------------------------------------------------0----------------|

INTRO 2x
E--------------0----0----------------------------------------------------------|
B-----------6----6-----------2---2--2-----1--1-1-------------------------------|
G--------7-------------7-----3---3--3-----2--2-2-------------------------------|
D-----7----------------------3---3--3-----2--2-2-------------------------------|
A--0---------------------------------------------------------------------------|
E------------------------------------------------------------------------------|

VERSE 3
Am E
Am E
G A7 D
A7 Am E

INTRO
E--------------0----0----------------------------------------------------------|
B-----------6----6-----------2---2--2-----1--1-1-------------------------------|
G--------7-------------7-----3---3--3-----2--2-2-------------------------------|
D-----7----------------------3---3--3-----2--2-2-------------------------------|
A--0---------------------------------------------------------------------------|
E------------------------------------------------------------------------------|

E--------------0----0---------------------0----------------------------------|
B-----------6----6-----------2---2--2-----1----------------------------------|
G--------7-------------7-----3---3--3-----2----------------------------------|
D-----7----------------------3---3--3-----2----------------------------------|
A--0--------------------------------------0----------------------------------|
E----------------------------------------------------------------------------|
Comments