Alela Diane - Colorado Blue Chords & Tabs

 

Colorado Blue Chords & Tabs

Alela Diane Chords & Tabs

Version: 1 Type: Tab 0 ratings
1 star 2 stars 3 stars 4 stars 5 stars
comments

Colorado Blue Tab

Title: Colorado Blue
Artist: Alela Diane
Album: About Farewell

Tabbed by: Tom Walter - walter dot tom at gmail dot com

Sorry about the dodgy ASCII version. I think Guitar Pro purposely make the
text export ugly in order to sell their software.

Legend:
h - hammer on
^ - brush down
% - repeat previous bar


Intro / Verse
E ||---------------------------|----|----|----------------------------|
B ||----------0-----------0----|----|----|-----------0----------------|
G ||o---------------4----------|-%--|-%--|----------------------------|
D ||o------0-----------0-------|----|----|--------0-----0-------------|
A ||-0h-2--------2-------------|----|----|--0h-2--------------4-------|
E ||---------------------------|----|----|----------------------------|

                                         x3     Chorus                                
----------------------------|----|----|---|||----------2-----------2----|----|
-----------2-----------2----|----|----|---|||-------2-----------2-------|----|
-----------------0----------|-%--|-%--|%-o|||o---2-----------2----------|-%--|
--------2-----------2-------|----|----|--o|||o0-----------0-------------|----|
--0-----------0-------------|----|----|---|||---------------------------|----|
----------------------------|----|----|---|||---------------------------|----|
[ Tab from: http://www.guitartabs.cc/tabs/a/alela_diane/colorado_blue_tab.html ]
                               x2                     Repeat from beginning x 3     
----------------------------|---||-----------2-----------2----|----|----|----||
-----------0----------------|---||--------2-----------2-------|----|----|----||
--------4--------------4----|%-o||-----2-----------2----------|-%--|-%--|-%--||
-----0--------------0-------|--o||--0-----------0-------------|----|----|----||
--------------0h-2----------|---||----------------------------|----|----|----||
--3-------------------------|---||----------------------------|----|----|----||

 Bridge                                                                            
---------------------------|----|----|----|----------------------------|----|
----------0-----------0----|----|----|----|-----------0-----------0----|----|
o------4-----------4-------|-%--|-%--|-%--|--------4-----------4-------|-%--|
o---0-----------0----------|----|----|----|-----2-----------2----------|----|
-------------2-------------|----|----|----|--------------2-------------|----|
-3-------------------------|----|----|----|--0-------------------------|----|

       x4   Outro                                       ^
----|---||-----------2-----------2----|----|----|----|--2----||
----|---||--------2-----------2-------|----|----|----|--2----||
-%--|%-o||-----2-----------2----------|-%--|-%--|-%--|--2----||
----|--o||--0-----------0-------------|----|----|----|--0----||
----|---||----------------------------|----|----|----|-------||
----|---||----------------------------|----|----|----|-------||
Comments