Aleks Syntek - Duele El Amor Chords & Tabs

 

Duele El Amor Chords & Tabs

Aleks Syntek Chords & Tabs

Version: 3 Type: Tab 0 ratings
1 star 2 stars 3 stars 4 stars 5 stars
comments

Duele El Amor Tab

   
Great song by Aleks Syntek with Ana Torroja

Duele el amor, sin ti, duele hasta matar
Intro
E||---------0----------------||
B||---3-----------2----0-----||
G||*-----2-----2------------*||
D||*------------------------*||
A||--------------------------||
E||--------------------------||
              3x

Main Riff:

|-----------------------11h12----------------------------------------------|
|--------------12--14v---------12r--12--14--12--------------------10-------|
|--11--13--14-----------------------------------14--11v---9----9------11---|
|--------------------------------------------------------------------------|
|--------------------------------------------------------------------------|
|--------------------------------------------------------------------------|

|-----------------------11h12---------------------------------------------|
|--------------12--14v---------12r--12--14--12----------------------------|
|--11--13--14-----------------------------------14--11v---9----9----------|
|-----------------------------------------------------------------11--9---|
|-------------------------------------------------------------------------|
|-------------------------------------------------------------------------|

You Repeat the intro through the verse 1, listen to it and check

  
Siento la humedad en mi de verte llorar ni hablar
Si es k tu te vas de aquí, creo k a mi me va sufrir
Hoy quisiera detener el tiempo, la distancia entre los dos
Pero se apago la luz del cielo, ya no sale mas el sol
Soy fragilidad sin ti, como superar el fin
Donde es que dañe, no se y el recuperar se fue
  Ni tu ni yo somos culpables pero somos vulnerables
Son las cosas de la vida que me queda por vivir

Chorus:
           D       E  C#m           F#m
Duele el amor sin ti Duele hasta mojar
        D       E   C#m         F#m
Duele amor sin ti duele hasta matar
            D      E C#m           F#m   D
Duele el amor sin ti todo esta tan gris...
  
[ Tab from: http://www.guitartabs.cc/tabs/a/aleks_syntek/duele_el_amor_tab_ver_3.html ]
  
|-----------------------11h12----------------------------------------------|
|--------------12--14v---------12r--12--14--12--------------------10-------|
|--11--13--14-----------------------------------14--11v---9----9------11---|
|--------------------------------------------------------------------------|
|--------------------------------------------------------------------------|
|--------------------------------------------------------------------------|

|-----------------------11h12-------------------------------------------|
|--------------12--14v---------12r--12--14--12---------------10/12--10--|
|--11--13--14-----------------------------------14--11v---9-------------|
|-----------------------------------------------------------------------|
|-----------------------------------------------------------------------|
|-----------------------------------------------------------------------|

  
Hoy quisiera detener el tiempo, la distancia entre los dos
Pero se apago la luz del cielo, ya no sale mas el sol
Soy fragilidad sin ti, como superar el fin
Donde es que dañe, no se y el recuperar se fue
  Ni tu ni yo somos culpables pero somos vulnerables
Son las cosas de la vida que me queda por vivir

Chorus:
           D       E  C#m           F#m
Duele el amor sin ti Duele hasta mojar
        D       E   C#m         F#m
Duele amor sin ti duele hasta matar
            D      E C#m           F#m   D
Duele el amor sin ti todo esta tan gris...
  

  
Siento la humedad en mi de verte llorar ni hablar
Si es k tu te vas de aquí, creo k a mi me va sufrir
            ^ 2x
^The first time, goes with no guitar, the second you put the intro.

Chorus:
           D       E  C#m           F#m
Duele el amor sin ti Duele hasta mojar
        D       E   C#m         F#m
Duele amor sin ti duele hasta matar
            D      E C#m           F#m   D
Duele el amor sin ti todo esta tan gris...
  

Final Solo:

|------------------------------------------------------------------------|
|------------------------------------------------12----------------------|
|--13/14-13----------9----11----9r----13/14-13----------9----11----9r----|
|--------------11--------------------------------------------------------|
|------------------------------------------------------------------------|
|------------------------------------------------------------------------|

---------------------------------------------------|
---------------------------------------------------|
--13/14-13----------9----7----9/6-----4/6----------|
--------------11--------------------9--------2/4---|
---------------------------------------------------|
---------------------------------------------------|

Thats It...

slash_2k4@hotmail.com
Comments