Aleks Syntek - Duele El Amor Chords & Tabs

 

Duele El Amor Chords & Tabs

Aleks Syntek Chords & Tabs

Version: 2 Type: Tab 0 ratings
1 star 2 stars 3 stars 4 stars 5 stars
comments

Duele El Amor Tab

Esta es una buena cancion de aleks syntek, solo la he escuchado un par de veces
asi que no esperen un milagro...
nota: para mayor facilidad, el solito esta en la escala de Mi mayor:
   9  10  11  12
e|-3-|-2-|---|-1-|
b|-6-|-5-|---|-4-|
g|-8-|---|-7-|---|
d|11-|---|10-|-9-|
a|14-|---|13-|12-|
E|---|---|---|---|

tunning: standart

e|-------0-----------------------------------------------------|
b|----2-----2--------------------------------------------------|
g|-----2---2----4---(x3 times)---------------------------------|
d|--0---------0------------------------------------------------|
a|-------------------------------------------------------------|
E|-------------------------------------------------------------|

[ Tab from: http://www.guitartabs.cc/tabs/a/aleks_syntek/duele_el_amor_tab_ver_2.html ]
e|-------0--------------------------9------12------------------|
b|----2-----2---------------9-10-12----------12----------------|
g|-----2---2----------4/11-------------------------------------|
d|--0---------0------------------------------------------------|
a|-------------------------------------------------------------|
E|-------------------------------------------------------------|


e|------9------------------------------------------------------|
b|---12---12-10------------10----------------------------------|
g|--------------11----9-11----9h11-----------------------------|
d|-------------------------------------------------------------|
a|-------------------------------------------------------------|
E|-------------------------------------------------------------|

e|-------------9------12-----------9---------------------------|
b|-----9-10-12-----------12-----12---12-10---------------------|
g|--11-------------------------------------11-9h11-------------|
d|---------------------------------------------------11\0------|
a|-------------------------------------------------------------|
E|-------------------------------------------------------------|


/=slide a la derecha
\=slide a la izquierda
h=hammer (amartilleo) 



ahi la tienen es una rola bien facil de este bato mexicano, pero no hay pedo,
hechenle ganas y practiquen un chingo caones.
Comments