Aldo Nova - Fantasy Chords & Tabs

 

Fantasy Chords & Tabs

Aldo Nova Chords & Tabs

Version: 1 Type: Tab 0 ratings
1 star 2 stars 3 stars 4 stars 5 stars
comments

Fantasy Tab

#-----------------------------------------------------------------------------#
#-- File created with Instab - http://www.pconline.com/~smcarey/instab.html --#
#-----------------------------------------------------------------------------#

Author/Artist: Aldo Nova
Title: Fantasy
Album: Fantasy
Transcribed by: Rhett Cutshaver - NyteCrwler
Email: genexrs@cox-internet.com

The keyboard parts are not in here, and keyboards 
are pretty prominent in Aldo Nova's songs, but they're 
pretty simple keyboard parts to figure out.

When listening to the intro riff, it's easy to think that there
is only one G5 chord, but there are two played very closely
together.
Effects NOTE: To get the tone of this song, try turning the bottom
end (low/bass control) of your amp/distortion pedal down, as the distortion is very
'trebly' and thin sounding. Also, add just a touch of chorus pedal. Typical early '80s.

------------------------------------------|-----------------------------------
------------------------------------------|-----------------------------------
------3--------5--3---------3-------------|-----------------------------------
-5-5--3-----5--5--3----5-5--3----3-3--5-5-|-----------------------------------
-5-5--1-----5--3--1----5-5--1----3-3--5-5-|-----------------------------------
-3-3--------3----------3-3-------1-1--3-3-|-----------------------------------
  Intro riff                                                                  

-/18----17-----15----13----------/10-----8-----6----5-------------------------
------------------------------------------------------------------------------
------------------------------------------------------------------------------
------------------------------------------------------------------------------
------------------------------------------------------------------------------
------------------------------------------------------------------------------
 Intro solo                                                                   

------------------------------------------------------------------------------
------------------------------------------------------------------------------
-------3-------------5--5---------------------3-----------------5--5----------
-5-5---3------3--3---5--5--------------5--5---3----------3--3---5--5----------
-5-5---1------3--3---3--3--------------5--5---1----------3--3---3--3----------
-3-3----------1--1---------------------3--3--------------1--1-----------------
 City nights, summer breeze makes me feel alright.  (This rhythm continues    

------------------------------------------------------------------------------
------------------------------------------------------------------------------
------------------------------------------------------------------------------
------------------------------------------------------------------------------
------------------------------------------------------------------------------
------------------------------------------------------------------------------
 through the vers and the chourus.)  - At the end of the first verse, repeat  

------------------------------------------------------------------------------
------------------------------------------------------------------------------
------------------------------------------------------------------------------
------------------------------------------------------------------------------
------------------------------------------------------------------------------
------------------------------------------------------------------------------
 the intro solo riff -                                                        
[ Tab from: http://www.guitartabs.cc/tabs/a/aldo_nova/fantasy_tab.html ]
------------------------------------------------------------------------------
------------------------------------------------------------------------------
-8--------------------7---8-------------7-------------------------------------
-8--------------------7---8-------------7-------------------------------------
-6--------------------5---6-------------5-------------------------------------
------------------------------------------------------------------------------
 Be careful what you see, it's not reality. It's just a fantasy. (repeat      

----------------------------------------14b15-14--14b15-14--14b15-14---14b15--
------------------------------------------------------------------------------
------------------------------------------------------------------------------
------------------------------------------------------------------------------
------------------------------------------------------------------------------
------------------------------------------------------------------------------
 verse rhythm under the chorus). SOLO:  (play the '14' BEFORE releasing bend) 

-14--14b15-14--/-20b21--20-17-15-15h17-20b|-----------------------------------
------------------------------------------|-----------8-6-----8-6----8-6------
------------------------------------------|--------/7-------7------7----------
------------------------------------------|-----------------------------------
------------------------------------------|-----------------------------------
------------------------------------------|-----------------------------------
                                                                              

-----------------------------------|------------------------------------------
----8-6-----8-6--------------------|------------------------------------------
--7-------7--------7b8--5---5--7b8-|--3p0-3p0-----3p0-3p0-----3p0-3p0---------
--------------------------7--------|----------3p0---------3p0---------3p0-----
-----------------------------------|------------------------------------------
-----------------------------------|------------------------------------------
                                                                              

--------------------------------------3------------3|-14b15p12--14b15p12------
--------------------------------3--5---------3------|-------------------------
-3p0-3p0------3p0-3p0------5b6-----------5b6--------|-------------------------
---------3p0----------3p0---------------------------|-------------------------
----------------------------------------------------|-------------------------
----------------------------------------------------|-------------------------
                                                                              

-14b15p12--14b15p12-12h14p12-14b15---19b20p17-19b20p17-19b20p17-17h19p17------
------------------------------------------------------------------------------
------------------------------------------------------------------------------
------------------------------------------------------------------------------
------------------------------------------------------------------------------
------------------------------------------------------------------------------
                                                                              

-17b20--19--17--14|-----------------------------------------------------------
------------------|-----------------------------------------------------------
------------------|-----------------------------------------------------------
------------------|-----------------------------------------------------------
------------------|-----------------------------------------------------------
------------------|-----------------------------------------------------------
                    Repeat Bridge and Chorus                                  

Comments