Alden Howard - Wrap Your Troubles In Dreams Replace Chords & Tabs

 

Wrap Your Troubles In Dreams Replace Chords & Tabs

Alden Howard Chords & Tabs

Version: 1 Type: Tab 0 ratings
1 star 2 stars 3 stars 4 stars 5 stars
comments

Wrap Your Troubles In Dreams Replace Tab

#----------------------------------PLEASE NOTE---------------------------------#
#This file is the author's own work and represents their interpretation of the #
#song. You may only use this file for private study, scholarship, or research. #
#------------------------------------------------------------------------------##
Song: Wrap Your Troubles in Dreams (and Dream Your Troubles Away)
Album: Sweet and Lowdown Soundtrack
Written by Ted Koehler, Bill Moll, and Harry Barris
Performed by Dick Hymen Group featuring Howard Alden
Tabbed by Matt Rader  email: ucimaaat@hotmail.com

Note: You'll need to listen to the song for the rest notes and dynamics. 
I put 8 beats per measure, except the first intro measure.

T=tap guitar body with right hand
*=tremolo (vigorously repeat notes)

Lead Guitar Tab (Howard Alden)

e|----------------|
B|----------------|
G|-----------4-5--|
D|-------2-5------|
A|-1/2-5----------|
E|----------------|


e|----------------|--------------------|
B|-----3-3-5-5----|---555-7-5-7b8------|
G|-4-4--4---------|-4------------------|
D|----------------|--------------------|
A|----------------|--------------------|
E|----------------|--------------------|


e|---------------------------|-3-0-3-2----------|
B|-5-8-T-T-5-8-5-8-5-/5------|-5-5-5-3-3--------|
G|----------------------6p4--|-----------5-3/4--|
D|---------------------------|------------------|
A|---------------------------|------------------|
E|---------------------------|------------------|


e|-----------------|----------------------------|
B|--------3-3-5-5--|---78/12\-(8)5-7-5-7-8-7-5--|
G|-7654-4--4-------|--9-------------------------|
D|-----0-0---------|-9--------------------------|
A|-----------------|----------------------------|
E|-----------------|----------------------------|


e|-----------------------|---------------------|
B|---------5-8-5-8-5-5\--|-5678----5-5-8-------|
G|-456-T-T---------------|----------7----/3-2--|
D|-----------------------|---------------------|
A|-----------------------|---------------------|
E|-----------------------|---------------------|


e|--7-7-6--5-6-7-----|--------------------67875--------|
B|-8-8---7-------9\--|-8p7p6p5-8-7-------------875-----|
G|-------------------|-------------7-9------------54---|
D|-------------------|-----------------/9-----------75-|
A|-------------------|---------------------------------|
E|-------------------|---------------------------------|


e|-7-7-6------5-4\--|-------------------7/10-6-10\-7-|
B|--8-8--7----------|-5-8p7p6p5-8-7---5--------------|
G|------------------|---------------7----------------|
D|------------------|--------------------------------|
A|------------------|--------------------------------|
E|------------------|--------------------------------|


e|-7-10-7-10-12-12--|-12-14-15-12-----------------12-|
B|------------------|------------12--11b12--10-------|
G|------------------|--------------12-----12---9-12--|
D|------------------|--------------------------------|
A|------------------|--------------------------------|
E|------------------|--------------------------------|


e|----------------------------|-78910---87--53--------|
B|-------------------/12-/12--|-----------------53----|
G|-9-12-T-T-9-12-9-12---------|-------89--67--34----5-|
D|----------------------------|-------------------45--|
A|----------------------------|-----------------------|
E|----------------------------|-----------------------|

[ Tab from: http://www.guitartabs.cc/tabs/a/alden_howard/wrap_your_troubles_in_dreams_replace_tab.html ]
e|--------------------------|-----2-3-2------------------|
B|--3-3-3-3-3-3-3-3-3-3-3-3-|-3-5-------5-4-5-7b8-7h8p7--|
G|-4-4-4-3-3-3-4-4-4-5-5-5--|--------------------------9-|
D|--------------------------|----------------------------|
A|--------------------------|----------------------------|
E|--------------------------|----------------------------|


e|------------------------|-----------------------------|
B|----------------8-------|-----------------------------|
G|-----------------9------|--------567567---------------|
D|-9p7p5-8p7p5-7-5--8h9---|-----789------9-7------------|
A|---------------------10-|-7910-------------9----7-----|
E|------------------------|--------------------10--7-10-|


e|-78910-----------------------------|
B|-----------8-10b11r10-8-10---------|
G|-------7-9----------------7-9h10p9-|
D|---------------------------9-------|
A|-----------------------------------|
E|-----------------------------------|


e|------------------------------------------9-|
B|-------------------------------10-8-12-10---|
G|-8-7-----------------------11-9-------------|
D|-----9-7---10--9---7----10-9----------------|
A|---------10--6---6---10---------------------|
E|--------------------------------------------|


e|-15141514----------------------------|-----8-7\--------7\------|
B|---------12--------------12----------|---------78107-8-------8-|
G|-----------12-11-11-11-11--11-10-(7)-|-9999-8------------7h9---|
D|-------------------------------------|-------------------------|
A|-------------------------------------|-------------------------|
E|-------------------------------------|-------------------------|

   *   *   *   *
e|-7---6---5---4---|-3---3---2---0----------67--|
B|-8---7---6---5---|-5-5-5-5-3-3------3---------|
G|-----------------|---------------3/4----79----|
D|-----------------|---------------4/5--89------|
A|-----------------|----------------------------|
E|-----------------|----------------------------|

    *    *    *    *
e|-10----9----8----7---|----------------7h8p7-6h7p6-5---------|
B|-12---11---10----9---|-7/8-(8)--7---------------------5-3---|
G|---------------------|-8/9--9---7-7-9----------------5----5-|
D|---------------------|----10-10---------------------6-------|
A|---------------------|-----------------------------5--------|
E|---------------------|--------------------------------------|


e|----------0--0---|-000------------|
B|-----3-3-/5-/5---|-555-7-5-7b8----|
G|-4-4--4----------|----------------|
D|-----------------|----------------|
A|-----------------|----------------|
E|-----------------|----------------|

			     retardando
e|----------------------|-----7---5---3-----------3-7---7--|
B|-5678-T-T-5-8-5-8-5-5-|-5-8-8-8-7-7-5-5-7---5--5---------|
G|----------------------|-----------------7-7-5-5----------|
D|----------------------|----------------------------------|
A|----------------------|----------------------------------|
E|----------------------|----------------------------------|


e|----------------------|------------7\------------10|
B|------5-55-7-77-8-88--|-10-8---8---7\--------7-11--|
G|-7-77------5----4-----|--9---9-----9\-------7------|
D|-5----4---------------|-10--------10\-----10-------|
A|----------------------|------------------9---------|
E|----------------------|----------------10----------|

	 *    *
e|-6/5-2-3----15------15--||
B|-------3----12-----12---||
G|-------4----12----12----||
D|-------5----12----------||
A|------------------------||
E|------------------------||
Comments