Alchemy - Perfect Chords & Tabs

 

Perfect Chords & Tabs

Alchemy Chords & Tabs

Version: 1 Type: Tab 0 ratings
1 star 2 stars 3 stars 4 stars 5 stars
comments

Perfect Tab

Perfect--By Alchemy---Rock on!!!!
  

   Intro--After Bass

  
 E-|-------------------------------------------------------------------------------------|
 A-|---4-4-4-4--7-7-7-7--2-2-2--4-4-4-4----7-7-7-7--4-4-4-4--2-2-2-2--0-0-0-0------------|
 D-|---6-6-6-6--9-9-9-9--4-4-4--6-6-6-6----9-9-9-9--6-6-6-6--4-4-4-4--2-2-2-2------------|
 G-|---6-6-6-6--9-9-9-9--4-4-4--6-6-6-6----9-9-9-9--6-6-6-6--4-4-4-4---------------------|
 B-|-------------------------------------------------------------------------------------|
 E-|-------------------------------------------------------------------------------------|

   
    Verse--

 E-|----------------------7-7-7-7-7-7-7-7------------------------------------------------|
 A-|-----4-4-4-4-4-4-4-4--x-x-x-x-x-x-x-x--7-7-7-7-7-7-7-7--0-0-0-0-0-0-0-0--------------|x2
 D-|-----x-x-x-x-x-x-x-x--9-9-9-9-9-9-9-9--x-x-x-x-x-x-x-x--2-2-2-2-2-2-2-2--------------|
 G-|-----6-6-6-6-6-6-6-6-------------------9-9-9-9-9-9-9-9-------------------------------|
 B-|-------------------------------------------------------------------------------------|
 E-|-------------------------------------------------------------------------------------|


   Chorus--
[ Tab from: http://www.guitartabs.cc/tabs/a/alchemy/perfect_tab.html ]
 E-|--------------------8-8-8-8-8-8-8-8------------------------------------------------|
 A-|---7-7-7-7-7-7-7-7--x-x-x-x-x-x-x-x----10-10-10-10-10-10-10-10--5-5-5-5-5-5-5-5----|-X2
 D-|---x-x-x-x-x-x-x-x--10-10-10-10-10-10--x-x-x-x-x-x-x-x-x-x-x-x--x-x-x-x-x-x-x-x----|
 G-|---9-9-9-9-9-9-9-9---------------------12-12-12-12-12-12-12-12--7-7-7-7-7-7-7-7----|
 B-|-----------------------------------------------------------------------------------|
 E-|-----------------------------------------------------------------------------------|


   Post Chorus--

  
 E-|------------------------------------------------------------------------------------|
 A-|---7-7-7-7-7-7-7-7--5-5-5-5-5-5-5-5--3-3-3-3-3-3-3-3~~ -----------------------------|
 D-|---9-9-9-9-9-9-9-9--7-7-7-7-7-7-7-7--5-5-5-5-5-5-5-5~~ -----------------------------|x1
 G-|---9-9-9-9-9-9-9-9--7-7-7-7-7-7-7-7--5-5-5-5-5-5-5-5~~ -----------------------------|
 B-|------------------------------------------------------------------------------------|
 E-|------------------------------------------------------------------------------------|

   Verse--

  
   Chorus--

   Post Chorus--


   Bridge--

  E-|---------------------5~ ---------|
  A-|---5~ ---3~ ---7~ ---x~ ---------|
  D-|---x~ ---x~ ---x~ ---3~ ---------|x2
  G-|---x~ ---x~ ---x~ ---------------|
  B-|---7~ ---5~ ---9~ ---------------|
  E-|---------------------------------|


   Chorus--
 
   Post chorus--(Outro)
Comments