Alcest - Les Iris Chords & Tabs

 

Les Iris Chords & Tabs

Alcest Chords & Tabs

Version: 2 Type: Bass Tab 0 ratings
1 star 2 stars 3 stars 4 stars 5 stars
comments

Les Iris Bass Tab

   
           Alcest
        - Les Iries -
Souvenirs d'un Autre Monde (2007)

       tabbed by PelzR


-----
Info:
-----
Tuning: Eb Tuning (D# G# C# F#)

This is a basic bass tab for this song. There are some more improvisations...
better to get your hands on the guitar pro tab I made.
Anyway I updated this tab and corrected some mistakes. 

------
Riffs:
------

(Re-)Intro/Verse

F#|-----------------|-----------------|-----------------|-----------------|
C#|-----------------|-----------------|-----------------|-----------------|
G#|-----------------|-2-2-2-2-2-2-2-2-|-3-3-3-3-3-3-3-3-|-5-5-5-5-5-5-5-5-|
D#|-0-0-0-0-0-0-0-0-|-----------------|-----------------|-----------------|

just before the first Verse
the last bar is a little different
or at least sounds different

F#|---------7-------|
C#|-------7---7-----| 
G#|-5-5-5-------5-0-| 
D#|-----------------| 


Pre-Chorus
[ Tab from: http://www.guitartabs.cc/tabs/a/alcest/les_iris_btab_ver_2.html ]
F#|-----------------|-----------------|-----------------|-----------------|
C#|-----------------|-----------------|-7-7-7-7-7-7-7-7-|-7-7-7-7-7-7-7-7-|
G#|-7-7-7-7-7-7-7-7-|-7-7-7-7-7-7-7-7-|-----------------|-----------------|
D#|-----------------|-----------------|-----------------|-----------------|
 
F#|-----------------|-----------------|-----------------|-----------------|
C#|-----------------|-----------------|-5-5-5-5-5-5-5-5-|-7-7-7-7-7-7-7-7-|
G#|-7-7-7-7-7-7-7-7-|-7-7-7-7-7-7-7-7-|-----------------|-----------------|
D#|-----------------|-----------------|-----------------|-----------------|
  
F#|-----------------|-----------------|-----------------|-----------------|
C#|-----------------|-----------------|-7-7-7-7-7-7-7-7-|-7-7-7-7-7-7-7-7-|
G#|-7-7-7-7-7-7-7-7-|-5-5-5-5-5-5-5-5-|-----------------|-----------------|
D#|-----------------|-----------------|-----------------|-----------------|
   
F#|-----------------|-----------------|-----------------|-----------------|
C#|-----------------|-----------------|-----------------|-----------------|
G#|-7-7-7-7-7-7-7-7-|-5-5-5-5-5-5-5-5-|-----------------|-----------------|
D#|-----------------|-----------------|-5-5-5-5-5-5-5-5-|-5-5-5-5-5-5-5-5-|


Chorus 
                
F#|-----------------|-----------------|-----------------|-----------------|
C#|-----------------|-----------------|-----------------|-----------------|
G#|-7-7-7-7-7-7-7-7-|-----------------|-----------------|-2-2-2-2-2-2-2-2-|
D#|-----------------|-5-5-5-5-5-5-5-5-|-3-3-3-3-3-3-3-3-|-----------------|

Break

F#|---|
C#|---| let ring
G#|---|
D#|-0-| 


Interlude/Outro 2

F#|------|------|------|------|
C#|------|-5--5-|-7--7-|-7--7-|
G#|-8--8-|------|------|------| 
D#|------|------|------|------| 


Bass Solo

F#|-9-9-9--7-------------------7--------|-12-12-12------10--9--9------------------------|
C#|-----------10--10-9----9-10---9-7----|-----------12------------7-7-7-7-7-7-7-7-7-7-7-|
G#|--------------------12------------10-|-----------------------------------------------|
D#|-------------------------------------|-----------------------------------------------|


Outro 1

F#|-----------------|-----------------|-----------------|-----------------|
C#|-----------------|-----------------|-----------------|-----------------| 
G#|-----------------|-----------------|-----------------|-----------------|  
D#|-1-1-1-1-1-1-1-1-|-3-3-3-3-3-3-3-3-|-5-5-5-5-5-5-5-5-|-5-5-5-5-5-5-5-5-|


----------
Structure:
----------
Intro      - 4x
Verse      - 4x
Per-Chorus - 1x
Chorus     - 4x
Break      - 1x
Re-Intro   - 4x
Pre-Chorus - 1x
Chorus     - 4x
Interlude  - 5x
Bass Solo  - 1x
Outro 1    - 6x
Outro 2    - 4x
Comments