Albert Lee - Country Boy Chords & Tabs

 

Country Boy Chords & Tabs

Albert Lee Chords & Tabs

Version: 2 Type: Tab 0 ratings
1 star 2 stars 3 stars 4 stars 5 stars
comments

Country Boy Tab

   
-------------------------------------------------------------------------------
			COUNTRY BOY INTRO - Albert Lee
-------------------------------------------------------------------------------
Tabbed by: Mike Northway
Email: michaelnorthway@fairadsl.co.uk

Tuning: EADGBE

Hello People, Not that anyone read or rated the first tab, i still took the liberty of
correcting some errors just in case anyone DID read it. If anyone has any corrections or
comments, drop me an email.

Enjoy this red-hot country tune
[ Tab from: http://www.guitartabs.cc/tabs/a/albert_lee/country_boy_tab_ver_2.html ]
 						       Drum Hit
e|------------------------|----------------------------3--|------------------|
B|--------3-----3---3-----|--------3-------------------3--|----------1-0-----|
G|----0-------0---------0-|----0-----------------------0--|------0----2-0---0|
D|4h5---5---5-----5---5---|4h5---5----0-0h2p0----------0--|-------2p0----0h2-|
A|------------------------|-------------------0h2------2--|-0h1h2------------|
E|------------------------|------------------------3---3--|------------------|
				    Full Band Joins In
e|------------------------------|-------0-----0------------------------------|
B|--------------3-5-3/8---------|---3/5---5\3---3----------------------------|
G|-3p2p0-2-0-2/4----------------|----------------3p2p0h2p0-0-0-----0---------|
D|------2-0---------------------|------------------------------0h2---2p0-----|
A|------------------------------|--------------------------------------------|
E|------------------------------|--------------------------------------------|

e|----------------------------3---3------------------------------------------|
B|----------------------------3---3------------------------------------------|
G|3p2p0-----0-3p2p0-----------0---0------0-------0---0-----------------------|
D|------0h2---------0h2p0-----0---0-------2p0-2/5-5\3-2-0--------------------|
A|-----------------------0h2--2---2-0h1h2----------------1p0-----------------|
E|--------------------------3-3-3-3-------------------------3----------------|
							     
| /  slide up
| \  slide down
| h  hammer-on
| p  pull-off
| ~  vibrato
| +  harmonic
| x  Mute note
===============================================================================
Comments