Albert Lee - Country Boy Chords & Tabs

 

Country Boy Chords & Tabs

Albert Lee Chords & Tabs

Version: 1 Type: Tab 0 ratings
1 star 2 stars 3 stars 4 stars 5 stars
comments

Country Boy Tab

-------------------------------------------------------------------------------
		     Country Boy (intro) - Albert Lee
-------------------------------------------------------------------------------

By: Mike Northway
[ Tab from: http://www.guitartabs.cc/tabs/a/albert_lee/country_boy_tab.html ]
Notes - Play whole intro extremely fast, i find it easier to use flat pick with
middle and ring fingers. Listen to original for exact timing. I have kinda broken
it down into sections
 						       Drum Hit
e|------------------------|----------------------------3--|------------------|
B|--------3-----3---3-----|--------3-------------------3--|------------------|
G|----0-------0---------0-|----0-----------------------0--|-----------3p2p0--|
D|4h5---5---5-----5---5---|4h5---5----0-0h2p0----------0--|-------0h2--------|
A|------------------------|-------------------0h2------2--|---0h2------------|
E|------------------------|------------------------3---3--|-3----------------|
				    Full Band Joins In
e|------------------------------|-------0-----0------------------------------|
B|----------------------3h5p3s8-|---3s5---5s3---3----------------------------|
G|----0-3p2p0-0h2p0-2s4---------|----------------3p2p0h2p0-0-0-----0---------|
D|0h2---------------------------|------------------------------0h2---2p0-0---|
A|------------------------------|--------------------------------------------|
E|------------------------------|--------------------------------------------|

e|----------------------------3---3------------------------------------------|
B|----------------------------3---3------------------------------------------|
G|3p2p0-----0-3p2p0-----------0---0-----------0------------------------------|
D|------0h2---------0h2p0-----0---0-------0h2---2-0h2p0----------------------|
A|------------------------0---2---2---0h2---------------2p0------------------|
E|--------------------------3-3-3-3-3-----------------------3----------------|
							     I May Look Like..
===============================================================================
Comments