Alanis Morissette - Hand In My Pocket Chords & Tabs

 

Hand In My Pocket Chords & Tabs

Alanis Morissette Chords & Tabs

Version: 2 Type: Tab

Hand In My Pocket Tab

Verse

E |------3-------3---|-----3---------3--|
B |--------3-------3-|-------3-----3----|
G |---0--------0-----|---0-------0------|
D |------------------|------------------|And so on....
A |------------------|------------------|
E |-3--------3-------|-3-------3--------| 
[ Tab from: http://www.guitartabs.cc/tabs/a/alanis_morissette/hand_in_my_pocket_tab_ver_2.html ]
 
Chorus
E |-----3-------3----|-----3-------3----|-----3-------3----|-----3---------3---||
B |-------3-------3--|-------3-------3--|-------3-------3--|-------3---------3-||
G |---0-------0------|---2-------2------|---0-------0------|---0-----0---0-----||
D |------------------|-0-------0--------|------------------|-------------------||
A |------------------|------------------|------------------|-------------------||
E |-1-------1--------|------------------|-3-------3--------|-3---------3-------|| 

Harmonica solo
G |-4--5-4-5--4-----||