Alan Merrill - I Love Rock And Roll Chords & Tabs

 

I Love Rock And Roll Chords & Tabs

Alan Merrill Chords & Tabs

Version: 1 Type: Bass Tab 0 ratings
1 star 2 stars 3 stars 4 stars 5 stars
comments

I Love Rock And Roll Bass Tab

   
Song: I Love Rock And Roll
Artist: Alan Merrill
Tabbed By: Pillie (pillie2001@hotmail.com)

SILENT BAR
G |---------------|
D |---------------|
A |---------------|
E |---------------|


INTRO
G |---------------|--------------|---------------|---------------|---------------|
D |---------------|--------------|---------------|---------------|---------------|
A |---------------|-0-0--2-2-X---|---------------|-0-0----2-0----|---------------|
E |-0-0---0-0-x-3-|------------3-|-0-0---0-0-X-3-|------------0--|---------------|


VERSE
G |---------------|--------------|
D |-----2-0-------|--------------| * 2
A |---------2-0---|--------------|
E |-0-0---------3-|-0-0----------|

G |---------------|--------------|---------------|---------------|
D |-----2-0-------|--------------|---------------|---------------|
A |-2-2-----2-0---|-0-0-----2-2--|---------------|-0-------------|
E |-------------3-|--------------|-0-0---X---3---|---------------|


SILENT FILL
G |---------------|  
D |---------------|
A |----------10/7-|
E |----------10/7-|


CHORUS BUILDUP
G |-----------------|
D |-----------------|
A |-----------------|
E |-7-7-7-7-7-7-7-7-|

[ Tab from: http://www.guitartabs.cc/tabs/a/alan_merrill/i_love_rock_and_roll_btab.html ]
CHORUS
G |---------------|--------------|---------------|---------------|---------------|
D |---------------|--------------|---------------|---------------|---------------|
A |---------------|-0-0--2-2-X---|---------------|-0-0----2-0----|---------------|
E |-0-0---0-0-X-3-|------------3-|-0-0---0-0-X-3-|------------0--|---------------|


SOLO
G |-------------------|---------------|-------------------|-------------------------|
D |-----2-0-----------|---------------|------2--0---------|-------------------------|
A |----------2--0-----|---------------|-----------2--0----|-------------------------|
E |-0-0-------------3-|-0-0-----------|-0-0-------------3-|-0-0---------------------|

G |--------------------|-------------------|---------------|---------------|
D |------2--0----------|-------------------|---------------|---------------|
A |-2-2-------2--0-----|-0-0------------2-2|---------------|-0-------------|
E |-----------------3--|-------------------|-0-0---X---3---|---------------|


OUTRO
G |---------------|--------------|---------------|---------------| 
D |---------------|--------------|---------------|---------------|
A |---------------|-0-0--2-2-X---|---------------|-0-0--------2-0| * 3
E |-0-0---0-0-X-3-|------------3-|-0-0---0-0-X-3-|---------------|



ORDER
Silent Bar * 1
Intro * 1

Verse * 1
Silent Bar * 2
Silent Fill * 1

Chorus Buildup * 1
Chorus * 1

Verse * 1
Silent Bar * 2
Silent Fill * 1

Chorus Buildup * 1
Chorus * 1

Solo * 1

Silent Bar * 8
Outro * 3
Comments