Alan Jackson - Remember When Chords & Tabs

 

Remember When Chords & Tabs

Alan Jackson Chords & Tabs

Version: 7 Type: Tab

Remember When Tab

   
Remember When ľ Alan Jackson
^ written below bars mark 1/8th notes for timing; chords written above bars
h = hammer on; p = pull off; / or \ = slide

Introduction
Lead:
e|-------------------------------|-----------------15------14--15|
B|-------------------------------|-------------------------------|
G|-------------------------------|------------/12----------------|
D|-------------------------------|-------------------------------|
A|-------------------------------|-------------------------------|
E|-------------------------------|-------------------------------|
                                               ^   ^   ^   ^   ^

   G                               Em
e|-------------------------------|-----------------12------14----|
B|-------------------------12----|-------------------------------|
G|-----------------------------12|-------------------------------|
D|-------------------------------|-14----------------------------|
A|-------------------------------|-------------------------------|
E|-------------------------------|-------------------------------|
   ^   ^   ^   ^   ^   ^   ^   ^   ^   ^   ^   ^   ^   ^   ^   ^

   C                               D
e|-14 h15----------15--14--12----|-----------------15------14--15|
B|-----------------------------15|-15----------------------------|
G|-------------14----------------|-------------------------------|
D|-------------------------------|-------------------------------|
A|-------------------------------|-------------------------------|
E|-------------------------------|-------------------------------|
   ^   ^   ^   ^   ^   ^   ^   ^   ^   ^   ^   ^   ^   ^   ^   ^

   G                               Em
e|-------------------------------|---------15------15------14----|
B|---------------------12--------|-----12------------------------|
G|-------------------------12----|-------------------------------|
D|-----------------------------12|-14----------------------------|
A|-------------------------------|-------------------------------|
E|-------------------------------|-------------------------------|
   ^   ^   ^   ^   ^   ^   ^   ^   ^   ^   ^   ^   ^   ^   ^   ^

   C                               D
e|-14 h15------15--15--14--12----|-------------------------------|
B|-------------------------------|-15--------------13------12h13p12*|
G|-------------------------------|-------------14----------------|
D|-------------------------------|-------------------------------|
A|-------------------------------|-------------------------------|
E|-------------------------------|-------------------------------|
   ^   ^   ^   ^   ^   ^   ^   ^   ^   ^   ^   ^   ^   ^   ^   ^
*Quick finger tap on 13th fret, happens within the 1/8th note
[ Tab from: http://www.guitartabs.cc/tabs/a/alan_jackson/remember_when_tab_ver_7.html ]
   D
e|-------------------------------|
B|-------------------------------|
G|-14----------------------------|
D|-------------------------------|
A|-------------------------------|
E|-------------------------------|
   ^   ^   ^   ^   ^   ^   ^   ^
              ôRe--mem-----ber when


Introduction
Rhythm:
e|-------------------------------|-------------------------------|
B|-------------------------------|-------------------------------|
G|-------------------------------|-------------------------------|
D|-------------------------------|-------------------------------|
A|-------------------------------|-------------------------------|
E|-------------------------------|-------------------------------|
                                               ^   ^   ^   ^   ^

   G                               Em
e|-----------------3-------------|-----------------0-----------0-|
B|-0---------------------------0-|-----------------0-------0-----|
G|-0-----------------------0-----|-----------------0-------------|
D|---------0---------------------|---------2---------------------|
A|-------------------------------|-------------------------------|
E|-3-----------------------------|-0-----------------------------|
   ^   ^   ^   ^   ^   ^   ^   ^   ^   ^   ^   ^   ^   ^   ^   ^

   C                               D
e|-----------------0-------------|-------------------------------|
B|-----------------1-----------1-|-----------------3-------------|
G|---------0---------------0-----|---------2---------------2-----|
D|-------------------------------|-0-----------------------------|
A|-3-----------------------------|-------------------------------|
E|-------------------------------|-------------------------------|
   ^   ^   ^   ^   ^   ^   ^   ^   ^   ^   ^   ^   ^   ^   ^   ^

   G                               Em
e|-------------------------------|-----------------0-----------0-|
B|-----------------0-------------|-----------------0-------0-----|
G|-----------------0-------------|-------------0-----------------|
D|---------0---------------0-----|---------2---------------------|
A|-------------------------------|-------------------------------|
E|-3-----------------------------|-0-----------------------------|
   ^   ^   ^   ^   ^   ^   ^   ^   ^   ^   ^   ^   ^   ^   ^   ^

   C                               D
e|-----------------0-------------|-----------------0h2p0---------|
B|-----------------1-----------1-|-------------3-----------3-----|
G|---------0---------------0-----|---------2-------------------2-|
D|-------------------------------|-0-----------------------------|
A|-3-----------------------------|-------------------------------|
E|-------------------------------|-------------------------------|
   ^   ^   ^   ^   ^   ^   ^   ^   ^   ^   ^   ^   ^   ^   ^   ^

e|-------------------------------|
B|-------------------------------|
G|-------------------------------|
D|-0-----------------------------|
A|-------------------------------|
E|-------------------------------|
   ^   ^   ^   ^   ^   ^   ^   ^
              ôRe--mem-----ber when

This seems correct.  If it sounds off, check the timing.  More later.  Tyler