Alan Jackson - Remember When Chords & Tabs

 

Remember When Chords & Tabs

Alan Jackson Chords & Tabs

Version: 3 Type: Tab 0 ratings
1 star 2 stars 3 stars 4 stars 5 stars
comments

Remember When Tab

yeah okay the ONLY other tab in here is of a guy who DOESN'T EVEN play guitar and i
know that i HATE playing down waaaaayyy far down on the thing... so yeah... play this instead...


e|--3--2--3----7--3--0--0-0--2--2/3--2/3--2--0---|
b|-----------------3---------------------------3-|
a|-----------------------------------------------|
g|-----------------------------------------------|
d|-----------------------------------------------|
E|-----------------------------------------------|
[ Tab from: http://www.guitartabs.cc/tabs/a/alan_jackson/remember_when_tab_ver_3.html ]
then just repeat it again and then finish off with...

e|----------------------3-----------------------|
b|---3--3-1-0-----------0-----------------------|
a|------------2--2-0----0-----------------------|
g|-------------------4--------------------------|
d|----------------------------------------------|
E|----------------------------------------------|

yeah i know... it's reeeeeally low... but i like it like that... idk i think it sounds
better but HEY who am i to judge... and i reeeally don't like to play all high like that
lol... i'm too lazy.
Comments