Alan Jackson - Chattahoochie Chords & Tabs

 

Chattahoochie Chords & Tabs

Alan Jackson Chords & Tabs

Version: 2 Type: Tab 0 ratings
1 star 2 stars 3 stars 4 stars 5 stars
comments

Chattahoochie Tab

  C         (8 counts)               C  (4 counts)  G    /    C   /

E]----------------------------------------------------------------|
B]----------------------------------------------------------------|
G]----------------------------------------------------------------|
D]-h-----h-----h-----h-------s-5-7-5--h-----h---------------------|
A]2}3-3-2}3-3-2}3-3-2}3-3-3-3/7------2}3-3-2}3-3-3-3-----5^(3)3---|
E]---------------------------------------------------5-3----------|

[ Tab from: http://www.guitartabs.cc/tabs/a/alan_jackson/chattahoochie_tab_ver_2.html ]
  C         (8 counts)               C  (4 cts) G   /   C (8 counts)
E]----------------------------------------------------------------------|
B]----------------------------------------------------------------------|
G]------------------------------------5---------------------------------|
D]-h-----h-----h-----h-------s-5-7-5----7-5-7---5-7---------------------|
A]2}3-3-2}3-3-2}3-3-2}3-3-3-3/7--------7-7---6-7---5^(3)3---/7----------|
E]----------------------------------------------------------------------|
Comments