Alamid - Your Love Chords & Tabs

 

Your Love Chords & Tabs

Alamid Chords & Tabs

Version: 5 Type: Tab

Your Love Tab

 malas yung una kong gawa baliktad hehe
isa ito sa mga magagandang kanta na alamid

Tab by Archie Escasio

E |------------------------------------------------------------------------|
B |------------------------------------------------------------------------|
G |------------------------------------------------------------------------|
D |------------------------------------------------------------------------|
A |-------3-5-7-8-9--------------------------------------------------------|
E |-3h5-0------------------------------------------------------------------|

[ Tab from: http://www.guitartabs.cc/tabs/a/alamid/your_love_tab_ver_5.html ]
E |-15-15------------------------------------------------------------------|
B |-------15--13-12-13-------15-13-15-13-15-13-15--------------------------|
G |--------------------12-12----------------------12-12-12-----------------|
D |--------------------------------------------------------12-12h15-12-----|
A |------------------------------------------------------------------------|
E |------------------------------------------------------------------------|

E |----10----------10s15-17s19-17-15-17--------19-19-19-19-----------------|
B |-------12-13-12-----------------------17-15----------------15-----------|
G |------------------------------------------------------------------------|
D |------------------------------------------------------------------------|
E |------------------------------------------------------------------------|

sori hindi poh tapos yan hindi ko poh alam yung kasunod.,. hehe

banda ko
Coda Seven
Archie Escasio- Vox and Rhythm guitar
Sharlie Enriquez- Vox and Lead guitar
Robert Angusto- Vox and bass guitar
Patrick Ramirez- Drums