Alamid - Your Love Chords & Tabs

 

Your Love Chords & Tabs

Alamid Chords & Tabs

Version: 4 Type: Tab 0 ratings
1 star 2 stars 3 stars 4 stars 5 stars
comments

Your Love Tab

   
             |---------------------------------|
	     |   Your Love tab(solo) - Alamid  | 
             |---------------------------------|
Tabbed by:ganjamel
Email:ganjah_69@yahoo.com

Tuning:standard (EADGBE)

e|-----------------------------||-/15-15------------------|
B|-----------------------------||--------15--13-12-13-----|
G|-----------------------------||---------------------12--|
D|--------------------------7/-||-------------------------|
A|-9h10--------------7-9-10----||-------------------------|
E|-----10--8-7-8--10-----------||-------------------------|

e|--------------------------------------------------------|
B|-----15--15-13--15-12--15----15-------------------------|
G|-12-----------------------14----12--11-11h12------------|
D|---------------------------------------------12-12/14-12|
A|--------------------------------------------------------|
E|--------------------------------------------------------|
[ Tab from: http://www.guitartabs.cc/tabs/a/alamid/your_love_tab_ver_4.html ]
e|------------------15/----------22-----------------------|
B|-15--13--12h13/15---------22b24---22b24--20-22--22-20---|
G|------------------------------------------------------21|
D|--------------------------------------------------------|
A|--------------------------------------------------------|
E|--------------------------------------------------------|

e|----------22-22-22--------------15----------------------|
B|-20-22b24----------20-----13/15----13h15p13--12h13p12---|
G|------------------------------------------------------14|
D|--------------------------------------------------------|
A|--------------------------------------------------------|
E|--------------------------------------------------------|

e|--------------------------------------------------------|
B|--------------------------------------------------------|
G|---14p12----12-14b16---14p12--12-14b16-14b16--------12~-|
D|--x------14-----------x-----14----------------12h14-----|
A|-x-------------------x----------------------------------|
E|--------------------------------------------------------|




| /  slide up         b bend
| \  slide down
| h  hammer-on
| p  pull-off
| ~  vibrato
| +  harmonic
| x  Mute note
==========================================================
Comments