Alain Souchon - Somerset Maughan Chords & Tabs

 

Somerset Maughan Chords & Tabs

Alain Souchon Chords & Tabs

Version: 1 Type: Tab 0 ratings
1 star 2 stars 3 stars 4 stars 5 stars
comments

Somerset Maughan Tab

   





    Summerset maughan( Alain Souchon)
--------------------------------------------------------------------------------
transcription par Partoche(partoche@caramail.com)

Voici une chanson qui s'appelle "l'amour,il faut etre deux"
(c'est pas l'titre exact mais ca veut dire ca quoi en gros...(Alain 
Souchon)

Intro:
   Dm/G
e|-------------------------------------------------------------------------|
B|----3-------1----0--------0---------0------3-----1-----0-------0---------|
G|--------2--------------2---------2------------2-------------0--------0---|
D|------0--------------0---------0------------0-------------0--------0---4-|
A|-------------------------------------------------------------------------|
E|-3--------3---3----3---------3---------3------------3----3--------3------|

couplets:
   C                  Dm/F#               Dm/G
e||------------------------------------------------------------------------|
B||----1--------1---------1--------1----------3-------1---0-----0----------|
G||--------0--------0---------3--------3----------3------------0------0----|
D||------2--------2---------2--------2----------2-------------0------0-4---|
A||------------------------------------------------------------------------|
E||-0---------0---------2--------2----------3-------3---3----3-----3-------|
    on somno     - lait          chez...    ca,

   C                  Dm/F#               Dm/G
e|-------------------------------------------------------------------------|
B|----1--------1---------1--------1----------3-------1---0-----0-------0---|
G|--------0--------0---------3--------3----------3------------0------0-----|
D|------2--------2---------2--------2----------2---------------------------|
A|-------------------------------------------------------------------------|
E|-0---------0---------2--------2----------3-------3---3----3----3-2-----2-|
   Dans not'  jungle            le calme plat
[ Tab from: http://www.guitartabs.cc/tabs/a/alain_souchon/somerset_maughan_tab.html ]
   Dm              C9              D#+         G
e|--------------------------------------8---------------------------------|
B|----6------6-------5------5----------8----6----0-0-----0-0---0-0---0----|
G|--7------7-------4------4-----4-----8---8------0-0-----0-0---0-0---0----|
D|------7-------7-------5-----5-------------------------------------------|
A|----------------------------------6-------------------------------------|
E|---------------------------------------------3-----3-2----3-0-----0-----|
    il a deboule ......                     au port            moi  
j'etais
   B           Bm                          D C Bm C   Csus2 Bm7
e|--------------------------------------|-----------|------------------------|
B|-----4-------------3----------------3-|-----------|---3------3-------------|
G|----4-----2-------4-----4------4-4----|-rythmique-|--5------2----2---------|
D|---4----4--------4-----4-----4-----4--|-----------|-5------4----4----------|
A|-2-----2-------2-----2-----2----------|-----------|------------------------|
E|--------------------------------------|-----------|------------------------|
                                          Comme ...   de summerset 
maughan

   Dm/G
e|------------------------------------------||
B|----3-------1----0--------0------3--------||
G|--------2--------------2-----------2--0---||
D|------0--------------0--------------------||
A|------------------------------------------||
E|-3--------3---3----3---------3------------||

rem:pour la rythmique,je suis pas sur,et en plus c'est du piano,alors...

Paroles:

1)on somnolait,chez nous comme ca,
dans not' jungle,le calme plat,
Il a deboulé dans l'soir,en disant "mes malles sont encore au port"
Moi j'étais largué,classé,elle était bouche bée,et lui c'était Robert 
Taylor,
Comme dans ces nouvelles pour dames,de summerset maughan.

2)Ils sont faits pour deux,ces bambous
Tois là-dedans,ca va plus du tout,
Il avait gagné la cup, fumé les lit-up (?), claqué les tirelires
Quand elle enlevait sa main d'ma main,ses yeux d'mes yeux,ca m'faisait 
souffrir
Comme dans ces nouvelles pour dames,de Summerset Maughan.

3)J'voudrais qu'il s'en aille,de quoi j'ai l'air ?
  Avec mes détails,mes haltères!
  Il portait des lions sur l'dos,pour elle comme cadeaux,ca salissait 
tout,
  Moi j'me sentais vieillot fidèle,propriétaire d'elle,malheureux comme 
tout,
  Comme dans ces nouvelles pour dames,de summerset maughan.


4)Les capitaines beaux,lachez moi
 les femmes  sont sensibles a tout ca (biensur)
laissez nous tranquilles baskets,chocolat noisettes,sur not' canape
Allez summerset ailleurs,casser les aut' coeurs des aut' fiances
Comme dans ces nouvelles pour dames,de summerset maughan



Comments