Akira Yamaoka - Youre Not Here Chords & Tabs

 

Youre Not Here Chords & Tabs

Akira Yamaoka Chords & Tabs

Version: 1 Type: Tab 0 ratings
1 star 2 stars 3 stars 4 stars 5 stars
comments

Youre Not Here Tab

Yes, I'm very aware that this isn't the whole song (though this riff repeats throughout 
whole song). I'm mainly just trying to get others to tab it out, as opposed to simply 
us the chord progression.
[ Tab from: http://www.guitartabs.cc/tabs/a/akira_yamaoka/youre_not_here_tab.html ]
e ------------------------------------|
b ------------------------------------|
g ------------------------------------|
d ------------------------------------|
a ---7-5-7----7-5-7----7-5-7---7-5-7--|
E -5--------5--------5--------5-------|

e ---------------------------------------------|
b ---------------------------------------------|
g ---------------------------------------------|
d ---------------------------------------------|
a ---10-8-10----10-8-10----10-8-10----10-8-10--|
E -8----------8----------8----------8----------|
Comments