Akira Yamaoka - Silent Hill Theme Chords & Tabs

 

Silent Hill Theme Chords & Tabs

Akira Yamaoka Chords & Tabs

Version: 2 Type: Tab 0 ratings
1 star 2 stars 3 stars 4 stars 5 stars
comments

Silent Hill Theme Tab

   
Okay, this song/melody is from the game: Silent Hill 2
The song is just great!! YouŽll love it.. Download it too, and listen to it and get 
to it. YouŽll find out very soon that this is a "heavy" song!!

Okay, here we go:

This is the intro rhythm guitar:
e-----------------------------------------------------------|
B-----------------------------------------------------------|
G-----------------------------------------------------------|
D----2-2-2-x-x-4-4-4-x-x-5-5-5-5-5-5h7-5/4------------------|
A----3-3-3-x-x-5-5-5-x-x-7-7-7-7-7-7---7/5------------------|
E-----------------------------------------------------------|

Intro Lead Guitar (After 2 Bars of the above):
e------------------------------7-7---5p0----7------7-------------------------|
B----0---5---7--7h8---7----5-------------------------------------------------|
G----------------------------------------------------------------------------|
D----------------------------------------------------------------------------|
A----------------------------------------------------------------------------|
E----------------------------------------------------------------------------|

Intro Lead Guitar Solo:

e----------------------------------------------------------------------------|
B-----------3/5--------------------------------------------------------3-----|
G--------0-------4---------2-2/4---0-------------4---2---------------------4-|
D-----2---------------------------------4---5------------2---2/5-------------|
A--3-------------------------------------------------------------------------|
E----------------------------------------------------------------------------|


e----------------------------------------------------------------------------|
B-----------3/5---------------------------------------3---3/5----------------|
G--------0-------4-------2--2/4---0-----------4---2-------------4------------|
D-----2------------------------------4---5-----------------------------------|
A--3-------------------------------------------------------------------------|
E----------------------------------------------------------------------------|


Em* and Riff (x4):

e----------3---------------------|
B----------0---------------------|
G----------0---------------------|
D--2-------2---------------------|
A--2--------------3-----2-----1--|
E--0-----------------------------|

Melody #1:
[ Tab from: http://www.guitartabs.cc/tabs/a/akira_yamaoka/silent_hill_theme_tab_ver_2.html ]
e----------------------------------------|
B---------8---7--7--8p7---5/---0---------|
G----------------------------------------|
D-----7----------------------------------|
A--/7------------------------------------|
E----------------------------------------| X1


e------------------------------------12--|
B-------8---7--7--8p7---5----10----------|
G----------------------------------------|
D---7------------------------------------|
A-7--------------------------------------|
E----------------------------------------| X1

Pre-Chorus :

e---------------------------------------------------------|
B-----------8/10-----------------/8-8--7--8------10-------|
G----5h7/9-------9-------------------------------------9--|
D-/7------------------------------------------------------|
A---------------------------------------------------------|
E---------------------------------------------------------| x2

e---------------------------------------------------------|
B-----------8/10-----------------/8-8--7--8------10----12-|
G----5h7/9-------9----------------------------------------|
D-/7------------------------------------------------------|
A---------------------------------------------------------|
E---------------------------------------------------------|

Chorus Rhythm Chords:

e------------------------|
B------------------------|
G-----0-----0----0-----0-|
D----5-----4----2-----1--|
A---7-----5----3-----2---|
E------------------------|

Chorus Lead Guitar (main Melody):

e--------------------------------------------------|
B-8-8-8---7-7---8--8/10---5--------------5----0----|
G---------------------------------4--4-------------|
D--------------------------------------------------|
A--------------------------------------------------|
E--------------------------------------------------|

e------------------------------------------------------------------|
B-8--8--7--8-----------8--7---5--------0--5------------------------|
G-------------9--------------------------------8---8------6--8--9--|
D------------------------------------------------------------------|
A------------------------------------------------------------------|
E------------------------------------------------------------------|

x 4 Then Intro chords and intro solo then finishing on the Em section

It is a very difficult song but when you get it, it sounds GOOD;)

Thomas Lundesgaard, Norway
Comments