Aiza Siguera - Pagdating Ng Panahon Chords & Tabs

 

Pagdating Ng Panahon Chords & Tabs

Aiza Siguera Chords & Tabs

Version: 1 Type: Tab 0 ratings
1 star 2 stars 3 stars 4 stars 5 stars
comments

Pagdating Ng Panahon Tab

Aiza Ziguera
Pagdating ng panahon 
pagtiisan mo nalang Jhong!
e---------------------------------------------------
b-----0------------------0----------------------------
g--------------2-------------------------------------
d------------------2---------------------------------
e----0-----------------------------------------------


[ Tab from: http://www.guitartabs.cc/tabs/a/aiza_siguera/pagdating_ng_panahon_tab.html ]
e--------------------0-------------------------------
b---------------2--------2----------------------------
g----------2-----------------------------------------
d---0------------------------------------------------
e---------------------------------------------------



e---------------------------------------------------
b-----0------------------0----------------------------
g--------------2-------------------------------------
d------------------2---------------------------------
e----0-----------------------------------------------

Comments