Air - Sexy Boy Chords & Tabs

 

Sexy Boy Chords & Tabs

Air Chords & Tabs

Version: 1 Type: Bass Tab 0 ratings
1 star 2 stars 3 stars 4 stars 5 stars
comments

Sexy Boy Bass Tab

Artist: Air
Song:Sexy Boy
Tabbed By Fazza
/ =slide
P =pull off
H =hammer on


  Main Part (Chorus if you want)
G|-----7-------5--7-----7-----5--7-----7-----5--7----7------5--7--|
D|----------------------------------------------------------------|
A|--5-----5-5--------5----5-5-------3----3-3------3-----3-3-------|
E|----------------------------------------------------------------|
[ Tab from: http://www.guitartabs.cc/tabs/a/air/sexy_boy_btab.html ]
G|-----7-------5--7-----7-----5--7----10------9-10----10-----9-10-|
D|----------------------------------------------------------------|
A|--5-----5-5--------5----5-5-------8----0-8-8------8---0-8-8-----|
E|----------------------------------------------------------------|

  The bridge...
Chorus x1
G|--------------------------------|
D|----4-5-----4-5---4-5-----4-5---|
A|-3------3-3-----3-----3-3-------|
E|--------------------------------|

G|--------------------------------|
D|----4-5-----4-5---4-5-----4-5---|
A|--------------------------------|
E|--3-----3-3-----3-----3-3-------|

G|--------------------------------|
D|----3-5-----3-5---3-5-----3-5---|
A|-1------1-1-----1-----1-1-------|
E|--------------------------------|

G|--------------------------------|
D|----3-5-----3-5---3-5-----3-5---|
A|--------------------------------|
E|-1------1-1-----1-----1-1-------|

Repeat...etc...
Comments