Air - Mike Mills Chords & Tabs

 

Mike Mills Chords & Tabs

Air Chords & Tabs

Version: 1 Type: Tab 0 ratings
1 star 2 stars 3 stars 4 stars 5 stars
comments

Mike Mills Tab

   
-------------------------------------------------------------------------------
			     Mike Mills - Air
-------------------------------------------------------------------------------
Tabbed by:Adrian Smith
Email:

Tuning: regular

e|12-15-14-15-12-15-14-15----15-14-15-12-15-14-15----19-17-19-15-19-14-15----|
B|------------------------15----------------------17-------------------------|
G|---------------------------------------------------------------------------|
D|---------------------------------------------------------------------------|
A|---------------------------------------------------------------------------|
E|---------------------------------------------------------------------------|

e|12-15-14-15----15-14-15----17-15-17-14-17----17----17----17----17----17----|
B|------------15----------14----------------17----15----14----15----17-------|
G|---------------------------------------------------------------------------|
D|---------------------------------------------------------------------------|
A|---------------------------------------------------------------------------|
E|---------------------------------------------------------------------------|
[ Tab from: http://www.guitartabs.cc/tabs/a/air/mike_mills_tab.html ]
e|10-14-12-14-10-14-12-14-10-15-14-15-12-15-14-15|
B|-----------------------------------------------|
G|-----------------------------------------------|
D|-----------------------------------------------|
A|-----------------------------------------------|
E|-----------------------------------------------|

e|10-14-12-14-10-14-12-14-10-15-14-15-12-15-14-15|
B|-----------------------------------------------|
G|-----------------------------------------------|
D|-----------------------------------------------|
A|-----------------------------------------------|
E|-----------------------------------------------|

e|10-14-12-14-10-14-12-14-10-15-14-15-12-15-14-15|
B|-----------------------------------------------|
G|-----------------------------------------------|
D|-----------------------------------------------|
A|-----------------------------------------------|
E|-----------------------------------------------|

e|---14-12-14-17-14-12-14----14-12-14-15-14-12-14|
B|15----------------------15---------------------|
G|-----------------------------------------------|
D|-----------------------------------------------|
A|-----------------------------------------------|
E|-----------------------------------------------|

When you have played this 3 times you play end it like this, 3 times:

e|------------------------------18---------|
B|15-19-17-19-15-19-15-18-17-18----18-17-18|
G|-----------------------------------------|
D|-----------------------------------------|
A|-----------------------------------------|
E|-----------------------------------------|

thats the tone, and one way you can playe it. Fantastic song
Comments