Air - La Femme Dargent Chords & Tabs

 

La Femme Dargent Chords & Tabs

Air Chords & Tabs

Version: 2 Type: Bass Tab

La Femme Dargent Bass Tab

This is one pleasing baseline... 
                                 
g|------|------------------------------------------------------|
d|------|-----7-9---9p7---7--9---------------------------------|
a|------|-7h9-----------9-------9--9p7--5h7--------------------|
E|---/7-|-----------------------------------5-5---5-5---5/7--7-|

g|----------|
d|----------|
a|----------|
E|-2--5--7--|

g|---------------------|----|
d|---------------------|----|
a|---------------------|----|
E|--7--7---2--5--7-----|-7/-|
[ Tab from: http://www.guitartabs.cc/tabs/a/air/la_femme_dargent_btab_ver_2.html ]
g|-------------------------|--------------------------------------|
d|-------------------------|-------12--14---14b--14---14b--p12----|
a|-----5-7b-----7b--p5-----|---14------------------------------14-|
E|--7-------------------7--|--------------------------------------

g|---------------14---16--16p14----14--16------------------------------------|
d|---------14h16----------------16---------16--16p14--12h14------------------|
a|-14--14----------------------------------------------------12-12--12-12--12|
E|---------------------------------------------------------------------------|

Sorry I didn't include any guitar riffs, I may update it later. Any suggestions,
corrections, or anything else, send to jtinc9 at msn dot com. Enjoy