Air - Alone In Kyoto Chords & Tabs

 

Alone In Kyoto Chords & Tabs

Air Chords & Tabs

Version: 1 Type: Tab 0 ratings
1 star 2 stars 3 stars 4 stars 5 stars
comments

Alone In Kyoto Tab

   
##################################################################################
# This file is the author's own work and represents their interpretation of the  #
# song. You may only use this file for private study, scholarship, or research.  #
##################################################################################

"Alone in Kyoto"                                                     
as recorded by AIR
from 2004 "Talkie Walkie"

Tuning Info
#####################
e as e
B as B
G as G
D as D
A as A
e as e
Set Frequency to 440 Hz
#####################

MAIN RIFF.

Guitar 1(Acoustic Nylon Strings)
Capo 5
Chords names respective to capoed guitar.
[ Tab from: http://www.guitartabs.cc/tabs/a/air/alone_in_kyoto_tab.html ]
  Am               C                Am               C(add9)
e|----------------------------------------------------------3h0------|Repeat. 
B|------1p0--------------0h1--------------1h0------------------1h0---|
G|----2-----0---2------0-----0---2------2-----0---2------0---------2-|
D|--2---------2------2---------2------2---------2------2-------------|
A|0----------------3----------------0----------------3---------------|
E|-------------------------------------------------------------------|

BRIDGE
   
  D5
e|0------0------0--------0------------------------------|Repeat.
B|----3-----3-------3--------3--------------------------|
G|--2-----2-------2--------2----------------------------|
D|------------------------------------------------------|
A|------------------------------------------------------|
E|------------------------------------------------------|

All the genius of Air... 

SONG TABBED BY BRUNO GAMBA 2004. ANY QUESTION nobbru@libero.it
Comments