Ainslie - Keep Me A Secret Chords & Tabs

 

Keep Me A Secret Chords & Tabs

Ainslie Chords & Tabs

Version: 1 Type: Tab 0 ratings
1 star 2 stars 3 stars 4 stars 5 stars
comments

Keep Me A Secret Tab

   
Song: Keep Me A Secret
Artist: Ainslie
05-03-2003

The intro plays through the song, just listen and you'll get it.

Intro

         P             H              P           H
-------------------------------------------------------------------
-------5--4-----------4--5----------5--4--------4--5---------------
-------------------4-------------4------------4--------------------
---2------------2--------------2------------2----------------------
-------------------------------------------------------------------
-------------------------------------------------------------------

         P             H              P           H
-------------------------------------------------------------------
-------5--4-----------4--5----------5--4--------4--5---------------
-----4--------------4-------------4------------4-------------------
---2------------2--------------2------------2----------------------
-------------------------------------------------------------------
-------------------------------------------------------------------
[ Tab from: http://www.guitartabs.cc/tabs/a/ainslie/keep_me_a_secret_tab.html ]
         P             H              P           H
-------------------------------------------------------------------
-------5--4-----------4--5----------5--4--------4--5---------------
-----4--------------4-------------4------------4-------------------
---2------------2--------------2------------2----------------------
-------------------------------------------------------------------
-------------------------------------------------------------------

Intro

E, E, E, E, A, A, A, A

Verse 1

E, E, E, E, A, A, A, A
E, E, E, E, A, A, A, A
A, B, A, B

Chorus
E, E, E, E, A, A, A, A
E, E, E, E, A, A, A, A

Verse 2
E, E, E, E, A, A, A, A
E, E, E, E, A, A, A, A
A, A, A, A, A, B, A, B

Chorus
E, E, E, E, A, A, A, A


Middle 8
B C#m, A, A, B, C#m, Am 
Comments