Aimee Mann - Save Me Chords & Tabs

 

Save Me Chords & Tabs

Aimee Mann Chords & Tabs

Version: 2 Type: Chords 0 ratings
1 star 2 stars 3 stars 4 stars 5 stars
comments

Save Me Chords

   
Save Me/Aimee Mann

capo up 3 frets

[chord positions]
Em     Em maj7 Em7    Em6     G      B7      Gmaj7/F#
022000 021000  020000 0420000 320033 X21202  220033

Csus2  Am7    G#5    A7     C      F
X32033 X02010 321003 X02020 X32013 133211


[intro] Em  Em maj7  Em7 Em6 2x

Em        Em maj7 Em7 Em6    G     Csus2  G B7 
You look like              A perfect fit
Em        Em maj7 Em7 Em6             G     Csus2 G Gmaj7/F#
For a girl                in need of a tourniquet

chorus:       C  Em7   Am7
But can you save me
            C  Em7 C
Come on and save me
             C Em7 Am7
If you could save me
         G               G#5
From the ranks of the freaks
       Em              A7 
Who suspect they could never love anyone

 G Csus2 G B7

         Em   Em maj7 Em7 Em6         G         Csus2 G B7
'Cause I can tell            you know what it's like
Em        Em maj7 Em7 Em6        G      Csus2  G Gmaj7/F#
The long farewell         of the hunger strike

[chorus]

C               G  F C
You struck me dumb 
Like   radium  mm  mm
      Em7   Am7    Em7 Am7
Like peter pan or superman
           G F 
You will come 
     C  Em7 Am7
To save me
            C    Em7 C
Come on and save me
             C Em7 Am7
If you could save me
         G            G#5
From the ranks of the freaks
       Em              A7 
Who suspect they could never love anyone 3x

Em Em-maj7 Em7 Em6 G Csus2 G B7 2x

            C   Em7   Am7
But can you save me
            C  Em7 C
Come on and save me
             C Em7 Am7
If you could save me
         G            G#5
From the ranks of the freaks
       Em              A7 
Who suspect they could never love anyone 3x
[ Tab from: http://www.guitartabs.cc/tabs/a/aimee_mann/save_me_crd_ver_2.html ]
================================================================
for electric rhythm part in  the bridge, I get this:
the electric guitar is tuned down 1/2 step to Eb

Starting with that lick before the bridge, which would now be
< = stretch up
> = release back down
+ = hammer-on


e|-------------------------------------------|
B|--14<--16>--14>--16>--14>------------------|
G|-----------------------------11------------|
D|-------------------------------------------|
A|-------------------------------------------|
E|-------------------------------------------|
(lick before bridge)

CHORDS(pick these notes out of the chord and hammer on where noted)
   E         B        A        E         E    B   A    E
e|--------------------------------------------7--------------------12|
B|---0--------------------------------9--9----7--14------------------|
G|--1------------------------------------9----8--14-----13+-14-13----|
D|-2-----------1+-2-------2------8+-9----9----9--14--14----------14--|
A|-----------2--------0-4------7-------------------------------------|
E|-------------------------------------------------------------------|
 You struck me dumb                    Like radium    mm  mm

      G#m C#m     G#m C#m    (powerchords)B A E
Like peter pan or superman       You will come
  G#m7 C#m7             E  B  E
To save me  Come on and save me
             E G#m7 C#m7
If you could save me

          B            B+           G#m             C#
e|----------------------------------------------------------------------|
B|--------4------------4-------------4--------------6-------------------|
G|--------4------------4-------------4--------------6-------------------|
D|--------4------------5-------------6--------------6-------------------|
A|----------------------------------------------------------------------|
E|----------------------------------------------------------------------|
From the ranks of the freaks who suspect they could never love anyone 3x

A regular verse at that tuning would be:
  G#m    G#m-maj7 G#m7 G#m6     B    E   B    D#
e|--------------------------------------------------------|
B|-4--------4------4-----4------4----0---4----6-----------|
G|-4--------4------4-----4------4----1---4----6-----------|
D|-6--------5------4-----3------4----2---4----6-----------|
A|------------------------------2----2---2----8-----------|
E|--------------------------------------------------------|
  You look like            a perfect fit   etc.

That would be an arrangement to play electric guitar, tuned down 1/2 step, 
all the way thru, just playing quietly until the bridge


http://docweasel.com
doc@docweasel.com
Comments