Aguilera Christina - Im Ok Chords & Tabs

 

Im Ok Chords & Tabs

Aguilera Christina Chords & Tabs

Version: 1 Type: Tab 2 ratings
1 star 2 stars 3 stars 4 stars 5 stars
comments

Im Ok Tab

Christina Aguilera: I'm O.K.
Tabbed by Theraven
sergio_news@hotmail.com

 first part: repeat it a couple of times

E--2--5--3--2
B--3--5--3--2
G--4--6--4--3
D--4--7--5--4
A--2--7--5--4
E--x--5--3--2

then play:
[ Tab from: http://www.guitartabs.cc/tabs/a/aguilera_christina/im_ok_tab.html ]
E--x--2--x--2--3--2--3--2
B--x--3--x--2--3--3--3--2
G--0--4--0--3--4--4--4--3
D--2--4--2--4--5--4--5--4
A--2--2--2--4--5--2--5--4
E--0--x--0--2--3--x--3--2

now play 3 times the first 2 chords and only then the others:

E--3--5----5--x
B--3--5----5--x
G--4--7----6--0
D--5--7----7--2
A--5--5----7--2
E--3--x----5--0


now play again all the previous and then:

E--3--2--5
B--3--3--5
G--5--4--6
D--5--4--7
A--3--2--7
E--x--x--5
Comments