Agresion - Too Many Years Chords & Tabs

 

Too Many Years Chords & Tabs

Agresion Chords & Tabs

Version: 1 Type: Tab 0 ratings
1 star 2 stars 3 stars 4 stars 5 stars
comments

Too Many Years Tab

   
Song: Too many years
Artist: Agresion
Tuning: Drop A
Tabbed by: JH
Send any comments or corrections to jh19851@hotmail.com



Intro:
				   3X			1x
B |----------------------------------|-------------------|
F#|----------------------------------|-------------------|
D |----------------------------------|-------------------|
A |-2h3p2-2~~-0-2h3p2-2~~--0-2p0-3p0-|-5~-5-3~-3-3-0-----|
E |----------------------------------|-------------------| 
A |----------------------------------|-------------------|

				   3X			1x
B |----------------------------------|-------------------|
F#|----------------------------------|-------------------|
D |----------------------------------|-------------------|
A |-2h3p2-2----0-2h3p2-2---0-2p0-3p0-|-5~~--5~--3~~~~----|
E |----------------------------------|-------------------| 
A |----------------------------------|-------------------|


Riff A:
   d u d u    u d u d u   u d u d u d u d u   u d u d u   u d u d u
B |-------------------------------------------------------------------|
F#|-------------------------------------------------------------------|
D |-------------------------------------------------------------------|
A |0-2-3-2----0-2-3-2-0---0-2-0-3-0-0-2-3-2---0-2-3-2-0---0-0-0-0-0---|
E |0-2-3-2----0-2-3-2-0---0-2-0-3-0-0-2-3-2---0-2-3-2-0---0-0-0-0-0---|
A |0-2-3-2----0-2-3-2-0---0-2-0-3-0-0-2-3-2---0-2-3-2-0---0-0-0-0-0---|
                                                            * * * *


Riff B:
[ Tab from: http://www.guitartabs.cc/tabs/a/agresion/too_many_years_tab.html ]
B |-----------------------------------------------------|
F#|--------------------------------99999999-------------|
D |--------------------------------88888888-------------|
A |5-3--3-5-3--3----5-3--3-5-3--3--00000000-------------|
E |5-3--3-5-3--3----5-3--3-5-3--3-----------------------|
A |5-3--3-5-3--3----5-3--3-5-3--3-----------------------|
   * *  * * *  *    * *  * * *  *
B |-----------------------------------------------------|
F#|-----------------1616-1616-1616-1616-1616------------|
D |-----------------1515-1515-1515-1515-1515------------|
A |2222222222222222-------------------------------------|
E |2222222222222222-------------------------------------|
A |2222222222222222-------------------------------------|
   ****************


Riff C:
B |-----------------------------------------------------|
F#|-----------------------------------------------------|
D |-----------------------------------------------------|
A |2-1/2-1/2--1/2-2-2-6-6-1010-0~-----------------------|
E |2-1/2-1/2--1/2-2-2-6-6-8-8--0~-----------------------|
A |2-1/2-1/2--1/2-2-2-6-6------0~-----------------------|


Riff D:
B |-----------------------------------------------------|
F#|-----------------------------------------------------|
D |0~~--------------------------------------------------|
A |------2h3p2------------------------------------------|
E |------2h3p2------------------------------------------|
A |------2h3p2------------------------------------------|


Riff E: (I'm not sure about this)
                                    3x                         1x
B |----------------------------------|--------------------------|
F#|----------------------------------|--------------------------|
D |----------------------------------|--------------------------|
A |-2h3p2-2---0-2h3p2-2---0-2p0-3p0--|-2h3p2--0h2h3p2p0h2p0h3p0-|
E |----------------------------------|--------------------------| 
A |----------------------------------|--------------------------|
    * * * *   * * * * *   * * * * *    * * *


Outro:
                2x                                     10x
B |--------------|---------------------------------------|
F#|--------------|---------------------------------------|
D |--------------|---------------------------------------|
A |-5-3--3-5-3-3-|-5-3--3-5-3-3--7--6-4-3----------------|
E |-5-3--3-5-3-3-|-5-3--3-5-3-3--7--6-4-3----------------|
A |-5-3--3-5-3-3-|-5-3--3-5-3-3--7--6-4-3----------------|

end:
B |-----------------------------------------------------|
F#|------------9~~--------------------------------------|
D |------------8~~--------------------------------------|
A |-5-3--3-5-3-0~~--------------------------------------|
E |-5-3--3-5-3------------------------------------------|
A |-5-3--3-5-3------------------------------------------|


Order:
intro 
A 2x
B 3x
C 4x
A 2x
D 4x
E 4x
A 2x
B 3x
C 4x
outro
Comments