Agony Scene - We Bury Our Dead At Dawn Chords & Tabs

 

We Bury Our Dead At Dawn Chords & Tabs

Agony Scene Chords & Tabs

Version: 2 Type: Tab 0 ratings
1 star 2 stars 3 stars 4 stars 5 stars
comments

We Bury Our Dead At Dawn Tab

   
Band: The Agony Scene
Song: We Bury Our Dead by Dawn
Tabber: Eric C.
Tuning: Drop C
Any questions or you just wanna talk to me you can message me on my AIM name synystergates78
Key
***
... -palm mute
h   -hammer on
p   -pulloff
<>  -pinch harmonic and vibrato
/   -slide down
\   -slide up
*   -natural harmonic
~   -ring out

Both Guitars
|------------------------------------------------------|
|------------------------------------------------------|
|------------------------------------------------------|
|--------------------------------------------------0~--|
|----12-----12----12----12----12----12----12----12-0~--|
|-000---000----000---000---000---000---000---000---0~--|
  ...   ...    ...   ...   ...   ...   ...   ...

Guitar 1
Riff A
x3
|---------------------------------------------|
|---------------------------------------------|
|---------------------------------------------|
|-7\-0---1p0--*--1p0--*-1p0-0h1h3-0-----------|
|-7\-0---1p0--5--1p0--5-1p0-0h1h3-0-----------|
|-7\-0-0-1p0-----1p0----1p0-0h1h3-0-----------|
       .
on the 4th time play this
|-----------------------------------------|
|-----------------------------------------|
|-----------------------------------------|
|-0---1p0-------000-1p0-------------------|
|-0---1p0-4-4-4-000-1p0-4-4-4-------------|
|-0-0-1p0-------000-1p0-------------------|
    .           ...

Guitar 2
right after guitar 1 slides up from the 7
|-----------------------------------------------|
|-----------------------------------------------|
|-----------------------------------------------|
|-0--------0~-1-0~-1-0-00000000000--------------|
|-0--pause-0~-1-0~-1-0-00000000000--------------|
|-0--------0~-1-0~-1-0-00000000000-11\----------|
  .                    ...........

Then both guitars play Riff A once then go into this
Both Guitars x3
Riff B
|----------------------------------------|
|----------------------------------------|
|----------------------------------------|
|-0-0-1-0-3-0-1-0-3-0-1-0-0-1-3-0--------|
|-0-0-1-0-3-0-1-0-3-0-1-0-0-1-3-0--------|
|-0-0-1-0-3-0-1-0-3-0-1-0-0-1-3-0--------|
    . . . . . . . . . . . . . .
Both guitars on the 4th time play this
|-----------------------------------------|
|-----------------------------------------|
|-----------------------------------------|
|-0---1p0-------000-1p0-------------------|
|-0---1p0-4-4-4-000-1p0-4-4-4-------------|
|-0-0-1p0-------000-1p0-------------------|
    .           ...

Guitar 1
Riff C
|-------------------------------------------------------|
|-------------------------------------------------------|
|-------------------------------------------------------|
|-------------------------------------------------------|
|---5--7--7h8---5--7--7h8/10--8--7--8--10--8--7h8p7p5---|
|-00--0--0----00--0--0-------0--0--0--0--0--0-----------|
  ..  .  .    ..  .  .       .  .  .  .  .  .
Guitar 2
palm mutes these 2..im not going to put in the amount of times its easy enough to hear
|------|
|------|
|------|
|-0-8--|
|-0-8--|
|-0-8--|
  . .
Then guitar 1 keeps playing the same riff and guitar 2
rings out these chords x2
|----------0~--------|
|----------5~--------|
|----------5~--------|
|-0~-7~-3~-3~--------|
|-0~-5~-1~-0~--------|
|-0~-------0~--------|

Guitar 1
Riff D
|--------------------|
|--------------------|
|----6~--------------|
|-0~-6~-2~-0~-0------|
|-0~----0~-0~-0------|
|-0~----0~-0~-0------|
              .
[ Tab from: http://www.guitartabs.cc/tabs/a/agony_scene/we_bury_our_dead_at_dawn_tab_ver_2.html ]
Guitar 2
|----------------------|
|----------------------|
|----------------------|
|-0~-0~-0~-0~-0--------|
|-0~-0~-0~-0~-0--------|
|-0~-0~-0~-0~-0--------|
              .
Guitar 1
Riff E
I'm not gonna put in how many times to hammer on for each set of notes..it's pretty easy 
make out how long hes doing it for just use these in this order
|-----------------------------|
|-----------------------------|
|-----------------------------|
|-----------------------------|
|-0h5h8-0h4h7-0h7h10-0h5h8----|
|-----------------------------|

Guitar 2 palm mutes these over and over you can figure out
how long to play each one
|---------------|
|---------------|
|---------------|
|-0-6-2-0-------|
|-0-4-2-0-------|
|-0---2-0-------|
  . . . .
Then guitar 1 keeps playing the hammer on riff and
guitar rings out these single palm mutes
|----------------------------------------|
|----------------------------------------|
|----------------------------------------|
|-0~-0~-6~-6~-2~-2~-0~-------------------|
|-0~-0~-4~-4~-2~-2~-0~--xxpick slidexx---|
|-0~-0~-------2~-2~-0~--xx----------xx---|
  .  .
When guitar 2 pick slides guitar 1 does an pinch harmonic
|--------|
|--------|
|--------|
|-<7>----|
|--------|
|--------|

Riff F
Both Guitars
|-------------------------------|
|-------------------------------|
|-------------------------------|
|-0-0000-0-0000-0-0000-0-0000---|
|-0-0000-0-0000-0-0000-0-0000---|
|-0-0000-0-0000-0-0000-0-0000---|
  . .... . .... . .... . ....
|-------------------------------|
|-------------------------------|
|-------------------------------|
|-6-0000-6-0000-6-0000-6-0000---|
|-4-0000-4-0000-4-0000-4-0000---|
|---0000---0000---0000---0000---|
    ....   ....   ....   ....

|----------------------------------|
|----------------------------------|
|----------------------------------|
|-2-2222-2-2222-2-2222-2-2222------|
|-2-2222-2-2222-2-2222-2-2222------|
|-2-2222-2-2222-2-2222-2-2222------|
    ....   ....   ....   ....

|-----------------------------------------|
|-----------------------------------------|
|-----------------------------------------|
|-00-------00-------00--------------------|
|-00-------00-------00--------------------|
|-00-3h7p0-00-3h7p0-00-3h7p0-3h5p0-0h3p0--|
  ..       ..       ..
Riff G
Both Guitars
|-----------------------|
|-----------------------|
|-0~-0-1~-3-4-1-0~-0-1~-|
|-0~-0-1~-3-4-1-0~-0-1~-|
|-0~-0-1~-3-4-1-0~-0-1~-|
     .    . . .    .
Then guitar 1 pick slides and they go back into
Riff C
Guitar 1
|-------------------------------------------------------|
|-------------------------------------------------------|
|-------------------------------------------------------|
|-------------------------------------------------------|
|---5--7--7h8---5--7--7h8/10--8--7--8--10--8--7h8p7p5---|
|-00--0--0----00--0--0-------0--0--0--0--0--0-----------|
  ..  .  .    ..  .  .       .  .  .  .  .  .
Guitar 2
|------|
|------|
|------|
|-0-8--|
|-0-8--|
|-0-8--|
  . .
Then guitar 1 keeps playing the same riff
and guitar 2 harmonizes with
Note (there's a 3rd guitar in the backround ringing out the chords
that were played earlier when guitar 2 rang them out in riff C)
|---------------------------------------------------|
|---------------------------------------------------|
|---------------------------------------------------|
|---3--5--5h7--3--5--5h7/8-7--5--7--8-7--5h7p5p3----|
|---------------------------------------------------|
|-00--0--0---00--0--0-----0--0--0--0-0--0-----------|
  ..  .  .   ..  .  .     .  .  .  . .  .

Both Guitars end on
|--------|
|--------|
|--------|
|000-0~--|
|000-0~--|
|000-0~--|
 ...
Comments