Agony Scene - We Bury Our Dead At Dawn Chords & Tabs

 

We Bury Our Dead At Dawn Chords & Tabs

Agony Scene Chords & Tabs

Version: 1 Type: Tab 0 ratings
1 star 2 stars 3 stars 4 stars 5 stars
comments

We Bury Our Dead At Dawn Tab

We Bury Our Dead at Dawn
As Tabbed by Julio

Drop-C tuning		x= Palm Mute	h= hammer-on
Heavy Distortion		p= pull-off

Intro: {Amp feedback}
d--------------------------------------------------------------|
a--------------------------------------------------------------|
f------------------7-----------------7-------------------------|
C----000--------------- 000--------------------- Repeat about--| 8x
G--- 000--------5----- 000------5------------------------------|
C----000---------------000-------------------------------------|
        xxx	          xxx


pre verse: G-------4444---4444-----

Verse:
d-----------------------------------------------------------------------------|
a-----------------------------------------------------------------------------|
f-----------------------------------------------------------------------------| Repeat
C----1--0-----------1--0------------1--0-------------1--0-----1--2--3------0--|
G----1--0-----5----1--0------5----1--0-------5---- 1--0-----1--2--3------0----|
C----1--0-----------1--0-----------1--0--------------1--0-----1--2--3------0--|

pre chorus: G-------4444---4444-----
[ Tab from: http://www.guitartabs.cc/tabs/a/agony_scene/we_bury_our_dead_at_dawn_tab.html ]
Chorus:
d--------------------------------------------------------------------------|
a--------------------------------------------------------------------------|
f--------------------------------------------------------------------------|
C-----0-0------------------0-0---------------------------------------------|rep.
G----0-0-----5----7-h8--0-0-----5---7-h8--10--8--78--10--8--7--h8--p7--0--|
C----0-0-------------------0-0---------------------------------------------|
       x x		   x x

Verse 2:
Guitar 1:
d----------------------------------------------|
a----------------------------------------------|
f-----------------6----------------------------|
C-----0---------6---------2-------0------------|
G-----0---------4---------2-------0------------|
C-----0--------------------2-------0-----------|
Guitar 2:
d------------------------------------------------------------|
a------------------------------------------------------------|
f------------------------------------------------------------|
C------------------------------------------------------------|
G---------5-h-8p-5h-8p-5-h8p-5-h8p-5--4-h7p-4-h7p-4h7p-4-h7--|
C------------------------------------------------------------|

d-------------------------------------------------------------|
a-------------------------------------------------------------|
f-------------------------------------------------------------|
C-------------------------------------------------------------|
G---8--h10p--8h10p-8h10p--8-h10p--5-h7p--5-h7p5-h7p5-h7p--|
C-------------------------------------------------------------|
Repeat

Then both guitars play guitar 1's part (above) palm-muted and stacatto-style.
Repeat Chorus and end on

d----------------------------------------------|
a----------------------------------------------|
f----------------------------------------------|
C---- 0----------------------------------------|
G---- 0----------------------------------------|
C-----0----------------------------------------|......duh
Comments