Agony Scene - Paint It Black Chords & Tabs

 

Paint It Black Chords & Tabs

Agony Scene Chords & Tabs

Version: 1 Type: Bass Tab 0 ratings
1 star 2 stars 3 stars 4 stars 5 stars
comments

Paint It Black Bass Tab

----------------------------------------------------------------|
------------------Paint It Black    by The Agony Scene----------|
--------------------Album- The Agony Scene----------------------|

Tuning- CADG

Intro  (00:23)

--------------|
--------------|
--------------|   X 4
--12(let ring)

-------------|
-------------|
-------------|    X1
-0-0---------|

Verse   (00:34)

I see a red door....

--------------------------------------|
--------------------------------------|
--------------------------------------|
-0-0-r-0-0-0-0-0-0-0-0-0-0-0-0-12////-|

Chorus   (00:44)

------------------------------------------------|
------------------------------------------------|
------------------------------------------------|    X2
12-12-10-10-3-3-5-5-7-7-7-7-7h9-7h9-7h9-7h9-----|

Verse 2    (00:53)

------------------------------|
------------------------------|
------------------------------|    X2
0-0-0-0-0-0-0-7-7-7-7-7-7-----|

Chorus  X2    (1:04)

Verse   X2    (1:14)
[ Tab from: http://www.guitartabs.cc/tabs/a/agony_scene/paint_it_black_btab.html ]
Chorus  X2    (1:24)

Soft part      (1:34)

-------------------------------------------------|
-------------------------------------------------|
-------------------------------------------------|
0-r--0-0-r--0-0-r--0-0-r--0-0-0-0-0-0-0-12//////-|

Chorus X2     (1:54)

Verse  X2     (2:05)

Chorus X2     (2:15)

Bridge         (2:25)

--------------------------|
--------------------------|
--------------------------|     X2
\\12//10//3//5//7-7-7-7-7-|

---------------------------------|
---------------------------------|
---------------------------------|
-0 (play same rythym as bass drum)

Outtro     (2:55)

--------------------------------|
--------------------------------|
--------------------------------|      X4
--0(let ring)--7----------------|(let ring)

----------------------------------------|
----------------------------------------|
----------------------------------------|
-0 (play same as drum until the end)----|

~It's a great song and fun to play.  Our band loved it. Learn, rate, and enjoy.
Comments