Agony Scene - Darkest Red Chords & Tabs

 

Darkest Red Chords & Tabs

Agony Scene Chords & Tabs

Version: 1 Type: Tab 0 ratings
1 star 2 stars 3 stars 4 stars 5 stars
comments

Darkest Red Tab

   
Song: The Darkest Red
Artist: The Agony Scene
Album: The Darkest Red
Track#: 2
Tabbed By: RobbieK

Drop B Tuning

*Very Rough tab, play along with the song for the exact rhythm


intro
||-------------------------||
||-------------------------||
||-------------------------|| either a bend or 
||-------------------------|| wide vibrato
||-5h6p5h6p5h6p5h6---------||
||-------------------------||
||
||-------------------------||
||-------------------------||
||-------------------------|| 2x
||-------------------------||
||-------------------------||
||-00000-00000-00000-00000-||
   ..... ..... ..... .....

RIFF A
both                    2x
||-------------------------||
||-------------------------||
||-------------------------||
||-------------------------||
||-------------------------||
||-00000-00000-00000-00000-||


both guitars   4x
||-----------------------||
||-----------------------||
||-----------------------||
||-----------------------||
||---------------------5-||
||-111110-0-5b-0-0-0-0-5-||
   .....  .    .......

RIFF 2            4x
gtr1
||-----------------------||
||-----------------------||
||-----------------------||
||-----------------------||
||---------------------0-||
||-111110-0-5b-0-0-0-0-0-||
|| .....  .    .......
||gtr2
||-0000000--0------------||
||-5555555--5b-----------||
||-----------------------||
||-----------------------||
||---------------------0-||
||-------------0-0-0-0-0-||
               .......

Verse part 1
gtr1
|-------------------------------------------------------------------------|
|-------------------------------------------------------------------------|
|-------------------------------------------------------------------------|
|-------------------------------------------------------------------------|
|-------------------------------------------------------------------------|
|---------0-0--0-0-------------0-0-0--0-0-0--------------0-0--0-0---------|
|gtr2     ...  ...             .....  .....              ...  ...
|-------------------------------------------------------------------------|
|-------------------------------------------------------------------------|
|-------------------------------------------------------------------------|
|-------------------------------------------------------------------------|
|-6-6-6/3-------------6-6-6/3-----------------6-6-6/3--------------6-6-6/3|
|-6-6-6/3--0-0--0-0---6-6-6/3--0-0-0--0-0-0---6-6-6/3---0-0--0-0---6-6-6/3|
           ...  ...            .....  .....              ...  ...
[ Tab from: http://www.guitartabs.cc/tabs/a/agony_scene/darkest_red_tab.html ]
both                                        2x
||---------------------------------------------||
||---------------------------------------------||
||---------------------------------------------|| something very close 
||---------------------------------------------||
||-6-6-6/3--------------6-6-6/3-----5-----5----|| 2nd verse has pinch 
||-6-6-6/3-0-0-0-0-0-0--6-6-6/3-0-0---0-0---0--|| harmonics
           ...........          ...   ...   .

fill
|----------------------|
|----------------------|
|----------------------|
|----------------------|
|-1--------------------|
|-1-1111111111111111-0-|
    ................

chorus                                                             2x
||-------------------------------------------------------------------------||
||-------------------------------------------------------------------------||
||-------------------------------------------------------------------------||
||----------------8p7--------------------------------------8p7-8p7---------||
||--5-7-8-7-8-7h8-------5-7-8-5h7p5----------5-7-8-7-8-7h8---------7h8p7p0-||
||-0-0-0-0-0-----------8-8-8-------5h7h8p7--0-0-0-0-0-0---0---0---0--------||
||
||-------------------------------------------------------------------------||
||-------------------------------------------------------------------------||
||-------------------------------------------------------------------------||
||-------------------------------------------------------------------------||
||-0------------------8---------------------3--------------2---------------||
||-0------------------8---------------------3--------------2---------------||



both      8x
||---------||--------|
||---------||--------|
||---------||--------|
||---------||----<5>-|
||---------||-<5>----|
||-11111-0-||--------|

RIFF 2

verse, fill, chorus

Breakdown
gtr1                       4x   both
||----------------------------||----||
||----------------------------||----||
||----------------------------||-ph-||
||----------------------------||-5--||
||-1-----------0--5---------0-||----||
||-1p0-0-0-0-0-0--5p0-0-0-0-0-||----||
       .......        .....

both                                           4x
||---------------------------------------------------||
||---------------------------------------------------||
||---------------------------------------------------||
||---------------------------------------------------||
||-1-----------5-----------1-----------------0-----0-||
||-1p0-0-0-0-0-5p0-0-0-0-0-1p0-0-0-0-0-0-0-0-0-0-0-0-||
       .......     .......     .............   ...
RIFF A

last chorus 2nd is played more times.. and 2nd guitar doesnt come in right away

Outro   4x
both
||--------||
||--------||
||--------||
||--------||
||--------||
||-1111-0-||
   ....
Comments