Agnostic Front - Peace Chords & Tabs

 

Peace Chords & Tabs

Agnostic Front Chords & Tabs

Version: 1 Type: Bass Tab 0 ratings
1 star 2 stars 3 stars 4 stars 5 stars
comments

Peace Bass Tab

Band - Agnostic Front
Song - Peace
Album - Another Voice

Everything is not here, but this will get you started, so give me a break

   Intro
| |---------|---------|---------|--------|-------|--------------|---------|
|4|---------|---------|---------|--------|-------|--------------|---------|
|4|---------|---------|---------|--------|-------|--------------|---------|
| |---0-1-0-|--0---0--|-0---0-1-|-0---0--|-0---0-|--0-1-0---(0)-|-----(0)-|

[ Tab from: http://www.guitartabs.cc/tabs/a/agnostic_front/peace_btab.html ]
|---------|---------|---------|---------|---------|---------|---------||
|---------|---------|---------|---------|---------|---------|---------||
|---------|---------|---------|---------|---------|---------|---------||
|-----(0)-|-----(0)-|-----(0)-|-----(0)-|-----(0)-|-----(0)-|-----(0)-||

  Verse
||---------------------------------------------------------------||
||.-------------------------------------------------------------.||
||.-------1---------------1---------------1---------------------.||
||--0-0-0-----0-0-0-0-0-0-----0-0-0-0-0-0-----0-0-1-3--3-4--4----||

  Chorus
||---------||------------------------------------||
||---------||.-----------------------------------||
||---------||.-----------------------------------||
||--10\----||---0-0-0-0-0-0---0-0-0-0--0--0--0---||
Comments