Agnostic Front - Liberty Chords & Tabs

 

Liberty Chords & Tabs

Agnostic Front Chords & Tabs

Version: 1 Type: Tab 0 ratings
1 star 2 stars 3 stars 4 stars 5 stars
comments

Liberty Tab

   
Liberty       Agnostic Front (Dead Yuppies)

Intro/Coro
e|---------------------------------------------------------------|
B|---------------------------------------------------------------|
G|-------------------------------5555555-7777777-9999999-7777777-|x2
D|-7777777777777--9999999999999--5555555-7777777-9999999-7777777-|
A|-7777777777777--9999999999999--3333333-5555555-7777777-5555555-|
E|-5555555555555--7777777777777----------------------------------|

Estrofa
e|-------------------------|
B|-------------------------|
G|-00000-55555-77777-99999-|x4
D|-22222-55555-77777-99999-|
A|-22222-33333-55555-77777-|
E|-------------------------|

Coro
[|A-B-(C-D)(e-D)|]x2

Estrofa
[|E-B-C-D|]x4

Coro
[|A-B-(C-D)(e-D)|]x2

Riff
[|A:-B:-(C:-D:)(E:-

Solo
[|A-B-(C-D)(e-D)|]x2  con punteo
[ Tab from: http://www.guitartabs.cc/tabs/a/agnostic_front/liberty_tab.html ]
e|--------------------------------------------------------------------|
B|--------------------------------------------------------------------|
G|-------------------------------11~---------9~-----------------------|
D|------------------10-12~-10-12----12-10-12---12-10-9-10~-12-10-9-10-|
A|-9-11-12------10~---------------------------------------------------|
E|---------12~--------------------------------------------------------|

--------------------------------------------------------------------------|
--------------------------------------------------------------------------|
------------------------------------9---11~-------------9---9---9---11~---|
-12-10-9-10--12-10-9-10--12-10-9-10---10-----12-10-9-10--10--10--10-------|
--------------------------------------------------------------------------|
--------------------------------------------------------------------------|

------------------------------------------------|
------------------------------------------------|
------------------------------------------------|
-12-10-9-10--12-10-9-10--12-10-9-10--12-10-9-10-|
------------------------------------------------|
------------------------------------------------|

---------------------------------|
---------------------------------|
-11--11--11-11--11--11-11-11--11~|
---------------------------------|
---------------------------------|
---------------------------------|

Coro
[|A-B-(C-D)(e-D)|]x2

Riff
[|A:-B:-(C:-D:)(E:-   lo hace mientras va bajando el volumen

Legend
: = dejar sonando
~ = vibrator
A y B se tocan siempre
2 compaces c/u
Comments