Agents - Superhero Chords & Tabs

 

Superhero Chords & Tabs

Agents Chords & Tabs

Version: 2 Type: Bass Tab 0 ratings
1 star 2 stars 3 stars 4 stars 5 stars
comments

Superhero Bass Tab

Song: Superhero
Band: The Agents
Album: For All The Massive
tabbed by: Adam Marish


Intro Riff (used throughout song)

G:---------------------------------------
D:---------------------------------------
A:--------9----------9----------9--------
E:-7--10------7--10------7--10-----------

verse

G:---------------------------------------------------------------
D:--------------------------------------9-------9---------9-7----
A:------9-------9-------9----------7-10----7-10----7-10------9-8-
E:-7-10----7-10----7-10----7-10----------------------------------

[ Tab from: http://www.guitartabs.cc/tabs/a/agents/superhero_btab_ver_2.html ]
G:------------------------------------------------------
D:------------------------------------------------------
A:-----7--------7------------9-------9-------9--9-------
E:-5-8---8-7--8----55---7-10----7-10----7-10------10-9--

reggae groove

G:--------------------------------------
D:--------------------------------------
A:----------------5--7--5-7-57-57-------
E:-7--5-7--57-57------------------------


G:-----------------------------------------------
D:-----------------------------------------------
A:-7-------------------------------9-9-9-999-99--
E:----5--3-5-35-35--3-5-7--5--7--5---------------

other short riff

G:--------------------
D:--------------------
A:------9-99----9-----
E:-7-10------10-------

I'm Pretty Sure That's Right...A Few Notes May Be Wrong
In The Verse Because It's Hard To Catch It By Ear.

Enjoy!

Adam
The Royal Noise Brigade - Pa Ska/Swing At It's Finest
www.come.to/royalnoisebrigade
Comments