Agent Orange - Fire In The Rain Chords & Tabs

 

Fire In The Rain Chords & Tabs

Agent Orange Chords & Tabs

Version: 1 Type: Tab 0 ratings
1 star 2 stars 3 stars 4 stars 5 stars
comments

Fire In The Rain Tab

FIRE IN THE RAIN 

TABBED BY:jason
ARTIST: Agent Orange
SONG: fire in the rain
pm: palm muted...... du'h
an sick old school punk band from the 80's (slow kind of song)


:intro/course
e|---------------------------------|
b|---------------------------------|
g|--0----9-8-----9-8---------------|
d|---------------------909---------|
a|---------------------------------|
E|-----------------------------x2--|
 
:verse 1 and 2
e|-------------------------------------------------------------------|
b|-7-7-7-7--7-7---5-5-5-5--5-5---4-4-4-4--4-4--10-10-10-10---10-10---|
g|-7-7-7-7--7-7---5-5-5-5--5-5---4-4-4-4--4-4--10-10-10-10---10-10---|
d|-7-7-7-7--7-7---5-5-5-5--5-5---4-4-4-4--4-4--10-10-10-10---10-10---|
a|-5-5-5-5--5-5---3-3-3-3--3-3---2-2-2-2--2-2---8--8--8--8----8--8---|
E|-------------------------------------------------------------------|x4
pm   . . .          . . .          . . .           .  .  .
[ Tab from: http://www.guitartabs.cc/tabs/a/agent_orange/fire_in_the_rain_tab.html ]
then intro/course
then verse 1 and 2
then intro/course

:interlude/3rd verse
e|---------------------------------------------------|
b|-7-7-7-7-----5-5-5-5-----4-4-4-4----(10-10-10-10)--|
g|-7-7-7-7-----5-5-5-5-----4-4-4-4----(10-10-10-10)--|
d|-7-7-7-7-----5-5-5-5-----4-4-4-4----(10-10-10-10)--|
a|-5-5-5-5-----3-3-3-3-----2-2-2-2----(-8--8--8--8)--|
E|---------------------------------------------------|x4 (on the 4th time through these 
chords are pm'ed and played different)

back to intro/course
then interlude/3rd verse
then intro/course x2

:ending
e|---------------------------------|  |---------------------|
b|---------------------------------|  |---------------------|
g|--0----9-8-----9-8----9-8----9-8-|  |-9-8-9-8-------------|
d|---------------------------------|  |--------9--let ring--|
a|---------------------------------|  |---------------------|
E|---------------------------------|x3|---------------------|

first ever tab so go easy
Comments