Agent Orange - Everything Turns Grey Chords & Tabs

 

Everything Turns Grey Chords & Tabs

Agent Orange Chords & Tabs

Version: 2 Type: Tab 0 ratings
1 star 2 stars 3 stars 4 stars 5 stars
comments

Everything Turns Grey Tab

   
.=palm
h=hammer
B=BLEND
.................................
----------------------------------------------------------------]
----------------------------------------------------------------]
-2-1-0------------2-1-0-----------2-1-0-------------------------]
-------2-1-0------------2-1-0-----------2-1-0-------------------]
-------------3-0--------------3-0-------------3-0---------------]
----------------------------------------------------------------]

REPEAT ALL THIS BELOW ABOUT 4 TIMES THEN PLAY THE SOLO
...................         ..................
------------------------------------------------------
------------------------------------------------------
------------------------------------------------------
------------------------------------------------------
-7-7--7-7--7-7--7-7--7-7-7--5-5--5-5--5-5--5-5--5-5-5-
-5-5--5-5--5-5--5-5--5-5-5--3-3--3-3--3-3--3-3--3-3-3-

...................         ..................
------------------------------------------------------]
------------------------------------------------------]
------------------------------------------------------]
------------------------------------------------------]X5
-3-3--3-3--3-3--3-3--3-3-3--5-5--5-5--5-5--5-5--5-5-5-]
-1-1--1-1--1-1--1-1--1-1-1--3-3--3-3--3-3--3-3--3-3-3-]


-----------------------------------------------------]
-----------------------------------------------------]
-2-1-0-------------0-0-------------------------------]
-------2-1-0-------2-2-------------------------------]
-------------0-3---2-2-------------------------------]
-----------------------------------------------------]
                                                                     SOLO
-----------------------------------------------------------------------------


[ Tab from: http://www.guitartabs.cc/tabs/a/agent_orange/everything_turns_grey_tab_ver_2.html ]
--------------------------------------------------]
--------------------------------------------------]
--------------------------------------------------]
--------------------------------------------------]
------------------3----------------3---3-5b-------]
-3-5--3-5-5--3-5----5-5-5-5-3-3--5---5-----3-5-3--]


---------------------------------------------------------------------
---------------------------------------------------------------------
--------------------------------------------------------5---5-7-7b-5-
------------------------------------------------5-7-7-7---7----------
------------------3----------------3---3-5b-5/7----------------------
-3-5--3-5-5--3-5----5-5-5-5-3-3--5---5-------------------------------

--------------------------------------------------------------------------
--------------------------------------------------------------------------
------------------5---5-7b--5-7-5-7b-5-7-5-7b-5-7-5-7b-5-7-5-7-5-7-5-7-7b-
-7--7-7-7-7-5-5-7---7-----------------------------------------------------
--------------------------------------------------------------------------
--------------------------------------------------------------------------

--------------------------]
--------------------------]
-7-5----------------------]
--------------------------]
-----7--------------------]


...................         ..................
------------------------------------------------------]
------------------------------------------------------]
------------------------------------------------------]X2
------------------------------------------------------]
-7-7--7-7--7-7--7-7--7-7-7--5-5--5-5--5-5--5-5--5-5-5-]
-5-5--5-5--5-5--5-5--5-5-5--3-3--3-3--3-3--3-3--3-3-3-]

-----------------------------------------------------]
-----------------------------------------------------]
-2-1-0-------------0-0-------------------------------]
-------2-1-0-------2-2-------------------------------]
-------------0-3---2-2-------------------------------]
-----------------------------------------------------]

THE END
Comments