Agent Orange - A Cry For Help In A World Gone Mad Chords & Tabs

 

A Cry For Help In A World Gone Mad Chords & Tabs

Agent Orange Chords & Tabs

Version: 1 Type: Tab 0 ratings
1 star 2 stars 3 stars 4 stars 5 stars
comments

A Cry For Help In A World Gone Mad Tab

Agent Orange - A Cry For Help In A World Gone Mad

I didn't tab it, I just submitted it

Opening:

E: 1-------10-----------5----7---8-------7-----|
A: 3-------12-----------7----9---10-----9------|
D: 3-------12-----------7----9---10-----9------|
G: --------------------------------------------|
B: --------------------------------------------|
E: --------------------------------------------|

Bridge:

E: 0-------------------------------0----------------------|
A: -------------------------------------------------------|
D: -------------------------------------------------------|
G: -------12---12---11---9---------12---12---11--9--------|
B: -------------------------------------------------------|
E: -------------------------------------------------------|

Verse:

E: 12*------10*------5*----7---8*-----7*-------------------------------|
A: 14*----- 12*------7*----9---10*----9*-------------------------------|
D: 14*------12*------7*----9---10*----9*-------------------------------|
G: --------------------------------------------------------------------|
B: --------------------------------------------------------------------|
E: --------------------------------------------------------------------|

Chorus:
[ Tab from: http://www.guitartabs.cc/tabs/a/agent_orange/a_cry_for_help_in_a_world_gone_mad_tab.html ]
E:  8*------7*------8*---- 7*-------- 8*------7*-----------------------|
A: 10*---- 9*------10*----9*--------10*---- 9*-------------------------|
D: 10*-----9*------10*----9*--------10*-----9*-------------------------|
G: --------------------------------------------------------------------|
B: --------------------------------------------------------------------|
E: --------------------------------------------------------------------|

Then:

E:  7------5------3---- 2------0---------------------------------------|
A:  9----- 7------5-----4------2---------------------------------------|
D:  9------7------5-----4------2---------------------------------------|
G: --------------------------------------------------------------------|
B: --------------------------------------------------------------------|
E: --------------------------------------------------------------------|

Solo:
E:  ---------------- ----------------------------------- repeat--| 4x
A:  ----- -------------------------------------------------------|
D:  -------------------------------------------------------------|
G: --------------------------------------------------------------|
B: ---\5^-5^--5^--5^--5^--5^--5^--5^-----------------------------|
E: --------------------------------------------------------------|

Song Order:				Symbols:

Intro					* Multiple Strums
Bridge					\ Slide up frets
Verse					^ bend string
Bridge
Verse
Bridge
Chorus
Bridge
Solo
Bridge
Chorus
Comments