Age Of Electric - Remote Control Chords & Tabs

 

Remote Control Chords & Tabs

Age Of Electric Chords & Tabs

Version: 2 Type: Tab 0 ratings
1 star 2 stars 3 stars 4 stars 5 stars
comments

Remote Control Tab

   
By: Mark Belbin
Song: "Remote Control" by "Age Of Electric"
Album: "Make a Pest a Pet"


[Intro]-1st guitar
------------------------------------------------------------------------
-------------6--5------------6--5---------------------------------------
--------5--3------------5--3--------------------------------------------
------------------------------------------------------------------------
------------------------------------------------------------------------
------------------------------------------------------------------------

Repeat this once, and then one more time with a second guitar playing
a C chord.

[Verse]-Play 4 bars of C. Then 2 bars of G#, then 6 more bars of C, 2
more bars of G#, and then 2 more bars of C.

[Pre Chorus] 4 bars of F.
                                                 G#       D#       Bb
[Chorus] G#       D#       Bb        Where's my remote control

This is a little riff, that is played along with the Bb:
------------------------------------------------------------------------
-----4-3-4-3-4-3-4-3----------------------------------------------------
------------------------------------------------------------------------
------------------------------------------------------------------------
------------------------------------------------------------------------
------------------------------------------------------------------------
[ Tab from: http://www.guitartabs.cc/tabs/a/age_of_electric/remote_control_tab_ver_2.html ]
Repeat this pattern a couple of times for the chorus.By: Mark Belbin
Song: "Remote Control" by "Age Of Electric"
Album: "Make a Pest a Pet"


[Intro]-1st guitar
------------------------------------------------------------------------
-------------6--5------------6--5---------------------------------------
--------5--3------------5--3--------------------------------------------
------------------------------------------------------------------------
------------------------------------------------------------------------
------------------------------------------------------------------------

Repeat this once, and then one more time with a second guitar playing
a C chord.

[Verse]-Play 4 bars of C. Then 2 bars of G#, then 6 more bars of C, 2
more bars of G#, and then 2 more bars of C.

[Pre Chorus] 4 bars of F.
                                                 G#       D#       Bb
[Chorus] G#       D#       Bb        Where's my remote control

This is a little riff, that is played along with the Bb:
------------------------------------------------------------------------
-----4-3-4-3-4-3-4-3----------------------------------------------------
------------------------------------------------------------------------
------------------------------------------------------------------------
------------------------------------------------------------------------
------------------------------------------------------------------------
[ Tab from: http://www.guitartabs.cc/tabs/a/age_of_electric/remote_control_tab_ver_2.html ]
Repeat this pattern a couple of times for the chorus.
Comments