Age Of Electric - Remote Control Chords & Tabs

 

Remote Control Chords & Tabs

Age Of Electric Chords & Tabs

Version: 1 Type: Tab 0 ratings
1 star 2 stars 3 stars 4 stars 5 stars
comments

Remote Control Tab

   
#-----------------------------PLEASE NOTE-------------------------------------#
#This OLGA file is the author's own work and represents their interpretation  #
#of the song. You may only use this file for private study, scholarship, or   #
#research. Remember to view this file in Courier, or other monospaced font.   #
#See http://www.olga.net/faq/ for more information.                           #
#-----------------------------------------------------------------------------#

Subject: a/age_of_electric/remote_control.tab

REMOTE CONTROL- The Age of Electric

Tabbed by Gus and Steve,   bob@ai.iit.nrc.ca

Intro

E ------------------------------------------------------    
B ----------------6------5---------------------6------5-
G --5------3----------------------5------3-------------- X2
D ------------------------------------------------------
A ------------------------------------------------------
E ------------------------------------------------------

Verse            
          
E ------------------------------------------------------    
B ------------------------------------------------------
G --5---5---5---5---5---5---5---5---3---5---3----------- X8
D --5---5---5---5---5---5---5---5---3---5---3-----------
A --3---3---3---3---3---3---3---3---3---3---3-----------
E ------------------------------------------------------

    Then...

E ------------------------------------------------------
B ------------------------------------------------------
G ------------------------------------------------------ X1
D -6--6--6--6--6--6--6--6--6--6--6--6--6--6--6--6-------
A -6--6--6--6--6--6--6--6--6--6--6--6--6--6--6--6-------
E -4--4--4--4--4--4--4--4--4--4--4--4--4--4--4--4-------


E ------------------------------------------------------    B ------------------------------------------------------
G --5---5---5---5---5---5---5---5---3---5---3----------- X8
D --5---5---5---5---5---5---5---5---3---5---3-----------
A --3---3---3---3---3---3---3---3---3---3---3-----------
E ------------------------------------------------------

    Then...
[ Tab from: http://www.guitartabs.cc/tabs/a/age_of_electric/remote_control_tab.html ]
E ------------------------------------------------------
B ------------------------------------------------------
G ------------------------------------------------------ X1
D -6--6--6--6--6--6--6--6--6--6--6--6--6--6--6--6-------
A -6--6--6--6--6--6--6--6--6--6--6--6--6--6--6--6-------
E -4--4--4--4--4--4--4--4--4--4--4--4--4--4--4--4-------


E ------------------------------------------------------    B ------------------------------------------------------
G --5---5---5---5---5---5---5---5---3---5---3----------- X2
D --5---5---5---5---5---5---5---5---3---5---3-----------
A --3---3---3---3---3---3---3---3---3---3---3-----------
E ------------------------------------------------------

Bridge

E ------------------------------------------------------
B ------------------------------------------------------
G ------------------------------------------------------ 
D 3-3-3-3-3-3-3-3-3-3-3-3-3-3-3-3-3-3-3-3-3-3-3-3-3-3-3-      A 3-3-3-3-3-3-3-3-3-3-3-3-3-3-3-3-3-3-3-3-3-3-3-3-3-3-3-      E 1-1-1-1-1-1-1-1-1-1-1-1-1-1-1-1-1-1-1-1-1-1-1-1-1-1-1-

Chorus

E ------------------------------------------------------
B ------------------------------------------------------
G -------------8--8--8--8------------------------------- X6
D -6--6--6--6--8--8--8--8--8--8--8--8--8--8--8--8-------
A -6--6--6--6--6--6--6--6--8--8--8--8--8--8--8--8-------
E -4--4--4--4--------------6--6--6--6--6--6--6--6-------


Verse with fill #1

Fill #1

E ------------------------------------
B --------6----5----------6-----5/8---
G --3h5-------------3h5--------------- X1
D ------------------------------------
A ------------------------------------
E ------------------------------------

Bridge

Chorus

Verse with fill #2

E ------------------------------------
B --------6----5----------6-----5/8---
G --3h5-------------3h5--------------- 
D ------------------------------------
A ------------------------------------
E ------------------------------------

E ------------------------------------------
B --------18----17---------- 18-----17/20---
G --15h17-------------15h17-----------------
D ------------------------------------------
A ------------------------------------------
E ------------------------------------------

Chorus

End with Verse

Comments