Age Of Electric - Nothing Happens Chords & Tabs

 

Nothing Happens Chords & Tabs

Age Of Electric Chords & Tabs

Version: 1 Type: Bass Tab 0 ratings
1 star 2 stars 3 stars 4 stars 5 stars
comments

Nothing Happens Bass Tab

   
Nothing Happens-The Age Of Electric
Tabbed by Yerp
rhergott@bserv.com email me with any comments or questions.
Tuning: E A D G

This song is fairly simple.

Riff 1
G|-----------|
D|-----------|
A|-----------|
E|-7777-7777-|
Just play this over & over.

Riff 2 "...that's all..."
G|---------------------|
D|---------------------|
A|-777777777-5555----5-|
E|----------------77---|
Play this a couple times.

Riff 3
G|-------------------|
D|-------------------|
A|-------------------|
E|-33333333-00000000-|

The last time play this instead:

Riff 3-1
G|--------------------|
D|--------------------|
A|--------------------|
E|-3333333333333333-0-|

Then play Riff 4.
[ Tab from: http://www.guitartabs.cc/tabs/a/age_of_electric/nothing_happens_btab.html ]
Riff 4
G|------------------------------------------------------------------------------
D|------------------------------------------------------------------------------
A|-------------5-------------5-------------5------------------------------------
E|-777-5-7-5-7---777-5-7-5-7---777-5-7-5-7---777-5-7-5-77-777-5-7-5-7-5-777-5-7-

Cont'D
G|----------------------------------|
D|----------------------------------|
A|----------------------------------|
E|-5-77-777-5-7-5-7-5-777-5-7-5-7-5-|

Go directly to Riff 2, play that a bunch,
then Riff 3, play that a bunch the last time playing Riff 5.

Riff 5
G|-------------------------------------|
D|-------------------------------------|
A|----------------------------------00-|
E|-3333333333333333-000000-00-22-33----|

Go directly to Riff 1, play that for a while.
Then play Riff 2 a bunch.
Then play Riff 5 twice, Riff 3 four times, then Riff 3-1. 

THE END!!
Comments