Age Of Eclectic - Belly Up Chords & Tabs

 

Belly Up Chords & Tabs

Age Of Eclectic Chords & Tabs

Version: 1 Type: Bass Tab 0 ratings
1 star 2 stars 3 stars 4 stars 5 stars
comments

Belly Up Bass Tab

belly up
age of eclectic

main bass line
G--------------------------------
D--------------------------------
A-2-2-2-2-----------------5-5-5-5
E---------0-0-0-0-3-3-3-3--------
[ Tab from: http://www.guitartabs.cc/tabs/a/age_of_eclectic/belly_up_btab.html ]
part two
G------------------------------------------------------------
D-------------------------4-4--------------------------------
A-2-2-2-2-2-2-2-2-2-2-2-2------------------------------------
E-----------------------------3-3-3-3-3-3-3-3-3-3-3-3-5-5-5-5

and part three
G-----------------------
D-----------------------
A-2-2--5-5--7-7--5-5-3-0
E-----------------------

listen to the song and put them together signed The Lord of Funk


_________________________________________________________
DO YOU YAHOO!?
Get your free @yahoo.com address at http://mail.yahoo.com



Comments