Against Me - Yall Dont Wanna Step To Dis Chords & Tabs

 

Yall Dont Wanna Step To Dis Chords & Tabs

Against Me Chords & Tabs

Version: 1 Type: Tab 0 ratings
1 star 2 stars 3 stars 4 stars 5 stars
comments

Yall Dont Wanna Step To Dis Tab

-------------------------------------------------------------------------------
			     Yall Don't Wanna Step to Dis - Against Me!
-------------------------------------------------------------------------------
Tabbed by:Rob Bratney
Email:robisafooker@yahoo.com

Tuning: standard

there is some techinque required to play this song correctly. ill do my best to incorporate it.

INTRO:                     |slide these|
                           |  together |
e|---2---2---3---3---2---2-------------|
B|---3---3---0---0---2---2-------------|
G|---4---4---0---0---3---3-------------|
D|-4-4-4-4---0---0-4-4-4-4--4-45-54-4--|
A|---------2-2-2-2-4-4-4-4--4-45-54-4--|
E|---------3-3-3-3-2-2-2-2--2-23-32-2--|

"Four sins past saint hood..." Same chords as above just detatched.
[ Tab from: http://www.guitartabs.cc/tabs/a/against_me/yall_dont_wanna_step_to_dis_tab.html ]
e|-2-2--3-3--2-2-2-2---------------------------------------------------------------------|
B|-3-3--0-0--2-2-2-2---------------------------------------------------------------------|
G|-4-4--0-0--3-3-3-3---------------------------------------------------------------------|
D|-4-4--0-0--4-4-4-4---------------------------------------------------------------------|
A|------2-2--4-4-4-4---------------------------------------------------------------------|
E|------3-3--2-2-2-2---------------------------------------------------------------------|

"When honesty..." ill give you the chords, you can figure out the length and rythm.

e|-2--0----------------------------------------------------------------------------|
B|-3--2-----3----------------------------------------------------------------------|
G|-2--2--4-------------------------------------------------------------------------|
D|-0--2--4--5----------------------------------------------------------------------|
A|-0--0--2--5----------------------------------------------------------------------|
E|----0----------------------------------------------------------------------------|

the second time on through that verse it changes a bit at the end. right after "...a 
is selling the closest thing to love..." repeart those last two chords until he stops.

e|-2--0--------0--333-3-------|
B|-3--2--------2--000-0--3-3--|
G|-2--2--444---2--000-0----0--|
D|-0--2--444---2--000-0--2-0--|
A|-0--0--222---0--222-2--2-2--|
E|----0--------0--333-3--0-3--|

those are all the chords in the song. he plays everything really fast and ends on 
last two chords being repeated. good luck, this isnt a hard song.
Comments