Against Me - Problems Chords & Tabs

 

Problems Chords & Tabs

Against Me Chords & Tabs

Version: 1 Type: Tab 0 ratings
1 star 2 stars 3 stars 4 stars 5 stars
comments

Problems Tab

Tuning: Standard

Verse 1
e|-1-1-1-1-1-1-1-1--1-1-1-1-1-1-1-1-|
b|-1-1-1-1-1-1-1-1--3-3-3-3-3-3-3-3-|
g|-2-2-2-2-2-2-2-2--3-3-3-3-3-3-3-3-|
d|-3-3-3-3-3-3-3-3--3-3-3-3-3-3-3-3-|
a|-3-3-3-3-3-3-3-3--1-1-1-1-1-1-1-1-|
e|-1-1-1-1-1-1-1-1------------------|

Chorus 1
e|-1-1-1-1-1-1-1-1--1-1-1-1-1-1-1-1--3-3-3-3-3-3-3-3--1-1-1-1-1-1-1-1-|
b|-1-1-1-1-1-1-1-1--3-3-3-3-3-3-3-3--5-5-5-5-5-5-5-5--3-3-3-3-3-3-3-3-|
g|-2-2-2-2-2-2-2-2--3-3-3-3-3-3-3-3--5-5-5-5-5-5-5-5--3-3-3-3-3-3-3-3-|
d|-3-3-3-3-3-3-3-3--3-3-3-3-3-3-3-3--5-5-5-5-5-5-5-5--3-3-3-3-3-3-3-3-|
a|-3-3-3-3-3-3-3-3--1-1-1-1-1-1-1-1--3-3-3-3-3-3-3-3--1-1-1-1-1-1-1-1-|
e|-1-1-1-1-1-1-1-1----------------------------------------------------|

Verse 2 pt 1 
e|-1-1-1-1-1-1-1-1--1-1-1-1-1-1-1-1-|
b|-1-1-1-1-1-1-1-1--3-3-3-3-3-3-3-3-|
g|-2-2-2-2-2-2-2-2--3-3-3-3-3-3-3-3-|
d|-3-3-3-3-3-3-3-3--3-3-3-3-3-3-3-3-|
a|-3-3-3-3-3-3-3-3--1-1-1-1-1-1-1-1-|
e|-1-1-1-1-1-1-1-1------------------|
[ Tab from: http://www.guitartabs.cc/tabs/a/against_me/problems_tab.html ]
Verse 2 pt 2
e|-1-1-1-1-1-1-1-1--1-1-1-1-1-1-1-1--3-3-3-3-3-3-3-3--1-1-1-1-1-1-1-1-|
b|-1-1-1-1-1-1-1-1--3-3-3-3-3-3-3-3--5-5-5-5-5-5-5-5--3-3-3-3-3-3-3-3-|
g|-2-2-2-2-2-2-2-2--3-3-3-3-3-3-3-3--5-5-5-5-5-5-5-5--3-3-3-3-3-3-3-3-|
d|-3-3-3-3-3-3-3-3--3-3-3-3-3-3-3-3--5-5-5-5-5-5-5-5--3-3-3-3-3-3-3-3-|
a|-3-3-3-3-3-3-3-3--1-1-1-1-1-1-1-1--3-3-3-3-3-3-3-3--1-1-1-1-1-1-1-1-|
e|-1-1-1-1-1-1-1-1----------------------------------------------------|

e|-5-5-5-5-----------3-3-3-3--1-1-1-1-|
b|-7-7-7-7--6-6-6-6--5-5-5-5--3-3-3-3-|
g|-7-7-7-7--5-5-5-5--5-5-5-5--3-3-3-3-|
d|-7-7-7-7--3-3-3-3--5-5-5-5--3-3-3-3-|
a|-5-5-5-5-----------3-3-3-3--1-1-1-1-|
e|------------------------------------|

Chorus 2
e|-1-1-1-1-1-1-1-1--1-1-1-1-1-1-1-1-|
b|-1-1-1-1-1-1-1-1--3-3-3-3-3-3-3-3-|
g|-2-2-2-2-2-2-2-2--3-3-3-3-3-3-3-3-|
d|-3-3-3-3-3-3-3-3--3-3-3-3-3-3-3-3-|
a|-3-3-3-3-3-3-3-3--1-1-1-1-1-1-1-1-|
e|-1-1-1-1-1-1-1-1------------------|

Outro
e|-1-1-1-1-1-1-1-1--1-1-1-1-1-1-1-1--3-3-3-3-3-3-3-3--1-1-1-1-1-1-1-1-|
b|-1-1-1-1-1-1-1-1--3-3-3-3-3-3-3-3--5-5-5-5-5-5-5-5--3-3-3-3-3-3-3-3-|
g|-2-2-2-2-2-2-2-2--3-3-3-3-3-3-3-3--5-5-5-5-5-5-5-5--3-3-3-3-3-3-3-3-|
d|-3-3-3-3-3-3-3-3--3-3-3-3-3-3-3-3--5-5-5-5-5-5-5-5--3-3-3-3-3-3-3-3-|
a|-3-3-3-3-3-3-3-3--1-1-1-1-1-1-1-1--3-3-3-3-3-3-3-3--1-1-1-1-1-1-1-1-|
e|-1-1-1-1-1-1-1-1----------------------------------------------------|

Very easy
Comments